PrimaNota.ru - самый крупный в мире бесплатный архив песенных текстов, аккордов, табулатур и нот


The Devil Wears Prada - Forever Decay - текст песни, таба, видео

Регистрация Запомнить меня
Войти через:  Facebook Google Twitter Vk Yandex Mail.ru

The Devil Wears Prada - Forever Decay - текст песни, таба, видео

Печатать
Просмотров: 101
Tabbed by: smallen
Email: allensam@yahoo.com

Tuning:Drop C

Yes it is in drop C and probally the most "metal" song on the album.
this song is pretty sick and fun to play so enjoy :)

guitar 1

|-----------------------------------------------------------|
|-----------------------------------------------------------|
|-----------------------------------------------------------|
|-------------------------------------------8h9p8--2h3p2----|
|-1-----1---1---1/5--------------------------------------5--|
|---0-0---0---0-----0-0-0-0-0-0-0-0-0-0-0-0-----------------|   
    . .   .   .     .   . . .   . .   .   .

|-----------------------------------------------------------|
|-----------------------------------------------------------|
|-----------------------------------------------------------|
|-------------------------------------------8h9p8--2h3p2-3*-|
|-1-----1---1---1/5-----------------------------------------|
|---0-0---0---0-----0-0-0-0-0-0-0-0-0-0-0-0-----------------|   
    . .   .   .     .   . . .   . .   .   .

|------------------------------------------------------------------|
|------------------------------------------------------------------|
|------------------------------------------------------------------|
|--------------------------------------------------8h9p8--2h3p2----|
|-0-0-0-0---0--0-0-0---4-3-0-0---0-0-0-0---0--0-0---------------5--|
|-0-0-0-0---0--0-0-0---4-3-0-0---0-0-0-0---0--0-0------------------|
  . . . .   .  . . .   . . . .   . . . .   .  . .

|--------------------------------------------------------------------|
|--------------------------------------------------------------------|
|--------------------------------------------------------------------|
|--------------------------------------------------8h9p8--2h3p2----0-|
|-0-0-0-0---0--0-0-0---4-3-0-0---0-0-0-0---0--0-0---------------5/-0-|
|-0-0-0-0---0--0-0-0---4-3-0-0---0-0-0-0---0--0-0------------------0-|
  . . . .   .  . . .   . . . .   . . . .   .  . .

*pick slide*

|---------------------------------------------------------|
|---------------------------------------------------------|
|-7---10-10-10-10-9-9-9-9---10--14-14-14-14-12-12-12-12---|
|-x---x--x--x--x--x-x-x-x---x---x--x--x--x--x--x--x--x----|
|-5---8--8--8--8--7-7-7-7---8---12-12-12-12-10-10-10-10---|
|---------------------------------------------------------|


|---------------------------------------------------------|
|---------------------------------------------------------|
|--14---19-19-19-19-17-17-17-17-19-19-19-19-19-19-19-19---|
|--x----x--x--x--x--x--x--x--x--x--x--x--x--x--x--x--x----|
|--12---17-17-17-17-15-15-15-15-17-17-17-17-17-17-17-17---|
|---------------------------------------------------------|

tremelo pick 
|------------------------------------------|
|------------------------------------------|
|----------------------------------20--19--|
|--12--15--14--15--19--17--19--20----------|
|------------------------------------------|
|------------------------------------------|


|-------------------------|-----------|
|-------------------------|-----------|
|-------------------------|-----------|
|-------------------------|-----------| x8
|--0--0-0-0-0--0-0-0-0-0--|--0--0--0--|
|--0--0-0-0-0--0-0-0-0-0--|--0--0--0--|
   .  . . . .  . . . . .     .  .  .                              
                           play this on 
                           the 6th time                

|---------------------------------------------------------------|
|---------------------------------------------------------------|
|---------------------------------------------------------------|
|---------------------------------------------------------------|
|-1-----1---1---1/5-----------------1-----1---1---1/5-----------|
|---0-0---0---0-----0-0-0-0-0-0-0-0---0-0---0---0-----5h8p5p0-0-|
    . .   .   .     . . . . . . . .   . .   .   .          

|-----------------------------------------------------------|
|-----------------------------------------------------------|
|-----------------------------------------------------------|
|-------------------------------------------8h9p8--2h3p2----|
|-1-----1---1---1/5--------------------------------------5--|
|---0-0---0---0-----0-0-0-0-0-0-0-0-0-0-0-0-----------------|   
    . .   .   .     .   . . .   . .   .   .

|-----------------------------------------------------------|
|-----------------------------------------------------------|
|-----------------------------------------------------------|
|-------------------------------------------8h9p8--2h3p2-3*-|
|-1-----1---1---1/5-----------------------------------------|
|---0-0---0---0-----0-0-0-0-0-0-0-0-0-0-0-0-----------------|   
    . .   .   .     .   . . .   . .   .   .

|------------------------------------------------------|
|------------------------------------------------------|
|------------------------------------------------------|
|-1-----1---1---1p0---0---8-7--------------------------|
|-1-0-0-1-0-1-0-1p0-0-0-0-6-5-000-0-0-0-0-000-0-0-0-0--|
|---0-0---0---0-----0---0-----000-0-0-0-0-000-0-0-0-0--|
    . .   .   .     .   .     ... . . . . ... . . . .

|---------------|
|---------------|
|---------------|
|---------------|
|-000-0-0-0-0-0-|
|-000-0-0-0-0-0-|
  ... . . . .

|--------------------------------------------------------------------------------|
|--------------------------------------------------------------------------------|
|--------------------------------------------------------------------------------|
|--------------------------------------------------------------------------------|
|-000-0-0-0-0-0---000-0-0-0-0-000-0-0-0-0-000-0-0-0-0-0---000-0-0-0-0-000-0-0-0--|
|-000-0-0-0-0-0---000-0-0-0-0-000-0-0-0-0-000-0-0-0-0-0---000-0-0-0-0-000-0-0-0--|
  ... . . . . .   ... . . . . ... . . . . ... . . . . .   ... . . . . ... . . .

|-----------------------------------------------------------------------|
|-----------------------------------------------------------------------|
|-----------------------------------------------------------------------|
|-----------------------------------------------------------------------|
|-000-0-0-0-0-0---000-0-0-0-0-000-0-0-0-0-000-0-0-0-0-0---000-0-0-0-0---|
|-000-0-0-0-0-0---000-0-0-0-0-000-0-0-0-0-000-0-0-0-0-0---000-0-0-0-0---|
  ... . . . . .   ... . . . . ... . . . . ... . . . . .   ... . . . . 

*pick slide*

|-----------------------------------------------------------------|
|-----------------------------------------------------------------|
|-7-7-7-7-10-10-10-10-11-11-11-11-13--13--13--13--14--14--14--14--|
|-x-x-x-x-x--x--x--x--x--x--x--x--x---x---x---x---x---x---x---x---|
|-5-5-5-5-8--8--8--8--9--9--9--9--11--11--11--11--12--12--12--12--|
|-----------------------------------------------------------------|


|---------------------------------------|
|---------------------------------------|
|-14-17-14-17--19-19-19-19-17-17-17-17--|
|-x--x--x--x---x--x--x--x--x--x--x--x---|x2
|-12/15-12/15--17-17-17-17-15-15-15-15--|
|---------------------------------------|

tremolo pick
|-18----20-18-15-10-18---|
|----20------------------|
|------------------------|
|----------------------0-|
|----------------------0-|
|----------------------0-|

*pick slide*


|---------------------------------------------------------|
|---------------------------------------------------------|
|-7---10-10-10-10-9-9-9-9---10--14-14-14-14-12-12-12-12---|
|-x---x--x--x--x--x-x-x-x---x---x--x--x--x--x--x--x--x----|
|-5---8--8--8--8--7-7-7-7---8---12-12-12-12-10-10-10-10---|
|---------------------------------------------------------|


|---------------------------------------------------------|
|---------------------------------------------------------|
|--14---19-19-19-19-17-17-17-17-19-19-19-19-19-19-19-19---|
|--x----x--x--x--x--x--x--x--x--x--x--x--x--x--x--x--x----|
|--12---17-17-17-17-15-15-15-15-17-17-17-17-17-17-17-17---|
|---------------------------------------------------------|

tremelo pick 
|------------------------------------------|
|------------------------------------------|
|----------------------------------20--19--|
|--12--15--14--15--19--17--19--20----------|
|------------------------------------------|
|------------------------------------------|

|-------------------------|-----------|
|-------------------------|-----------|
|-------------------------|-----------|
|-------------------------|-----------|x8
|--0--0-0-0-0--0-0-0-0-0--|--0--0--0--|
|--0--0-0-0-0--0-0-0-0-0--|--0--0--0--|
   .  . . . .  . . . . .     .  .  .   
                          play 5th and 6th
                          times


guitar 2


|-----------------------------------------------------------|
|-----------------------------------------------------------|
|-----------------------------------------------------------|
|-------------------------------------------8h9p8--2h3p2----|
|-1-----1---1---1/5--------------------------------------5--|
|---0-0---0---0-----0-0-0-0-0-0-0-0-0-0-0-0-----------------|   
    . .   .   .     .   . . .   . .   .   .

|-----------------------------------------------------------|
|-----------------------------------------------------------|
|-----------------------------------------------------------|
|-------------------------------------------8h9p8--2h3p2-3*-|
|-1-----1---1---1/5-----------------------------------------|
|---0-0---0---0-----0-0-0-0-0-0-0-0-0-0-0-0-----------------|   
    . .   .   .     .   . . .   . .   .   .

|------------------------------------------------------------------|
|------------------------------------------------------------------|
|------------------------------------------------------------------|
|------------------------------------------------------------------|
|-0-0-0-0---0--0-0-0---4-3-0-0---0-0-0-0---0--0-0------------------|
|-0-0-0-0---0--0-0-0---4-3-0-0---0-0-0-0---0--0-0------------------|
  . . . .   .  . . .   . . . .   . . . .   .  . .

|--------------------------------------------------------------------|
|--------------------------------------------------------------------|
|--------------------------------------------------------------------|
|------------------------------------------------------------------0-|
|-0-0-0-0---0--0-0-0---4-3-0-0---0-0-0-0---0--0-0------------------0-|
|-0-0-0-0---0--0-0-0---4-3-0-0---0-0-0-0---0--0-0--------------12/-0-|
  . . . .   .  . . .   . . . .   . . . .   .  . .

*pick slide*


|-----------------------------------|
|-----------------------------------|
|-----------------------------------|
|--0---8-7-8-7-7---0---8-7-7-11-11--|x4
|--0---8-7-8-7-7---0---8-7-7-11-11--|
|--0---8-7-8-7-7---0---8-7-7-11-11--|


|-------------------------|-----------|
|-------------------------|-----------|
|-------------------------|-----------|
|-------------------------|-----------| x8
|--0--0-0-0-0--0-0-0-0-0--|--0--0--0--|
|--0--0-0-0-0--0-0-0-0-0--|--0--0--0--|
   .  . . . .  . . . . .     .  .  .                              
                           play this on 
                           the 6th time  

|------|
|------|
|------|
|--0~--|
|--0~--|
|--0~--|

|-----------------------------------------------------------|
|-----------------------------------------------------------|
|-----------------------------------------------------------|
|-------------------------------------------8h9p8--2h3p2----|
|-1-----1---1---1/5--------------------------------------5--|
|---0-0---0---0-----0-0-0-0-0-0-0-0-0-0-0-0-----------------|   
    . .   .   .     .   . . .   . .   .   .

|-----------------------------------------------------------|
|-----------------------------------------------------------|
|-----------------------------------------------------------|
|-------------------------------------------8h9p8--2h3p2-3*-|
|-1-----1---1---1/5-----------------------------------------|
|---0-0---0---0-----0-0-0-0-0-0-0-0-0-0-0-0-----------------|   
    . .   .   .     .   . . .   . .   .   .

|------------------------------------------------------|
|------------------------------------------------------|
|------------------------------------------------------|
|-1-----1---1---1p0---0---8-7--------------------------|
|-1-0-0-1-0-1-0-1p0-0-0-0-6-5-000-0-0-0-0-000-0-0-0-0--|
|---0-0---0---0-----0---0-----000-0-0-0-0-000-0-0-0-0--|
    . .   .   .     .   .     ... . . . . ... . . . .

|---------------|
|---------------|
|---------------|
|---------------|
|-000-0-0-0-0-0-|
|-000-0-0-0-0-0-|
  ... . . . .

|--------------------------------------------------------------------------------|
|--------------------------------------------------------------------------------|
|--------------------------------------------------------------------------------|
|--------------------------------------------------------------------------------|
|-000-0-0-0-0-0---000-0-0-0-0-000-0-0-0-0-000-0-0-0-0-0---000-0-0-0-0-000-0-0-0--|
|-000-0-0-0-0-0---000-0-0-0-0-000-0-0-0-0-000-0-0-0-0-0---000-0-0-0-0-000-0-0-0--|
  ... . . . . .   ... . . . . ... . . . . ... . . . . .   ... . . . . ... . . .

|-----------------------------------------------------------------------|
|-----------------------------------------------------------------------|
|-----------------------------------------------------------------------|
|-----------------------------------------------------------------------|
|-000-0-0-0-0-0---000-0-0-0-0-000-0-0-0-0-000-0-0-0-0-0---000-0-0-0-0---|
|-000-0-0-0-0-0---000-0-0-0-0-000-0-0-0-0-000-0-0-0-0-0---000-0-0-0-0---|
  ... . . . . .   ... . . . . ... . . . . ... . . . . .   ... . . . . 

*pick slide*

|--------------|---|
|--------------|---|
|--------------|---|
|--0--8--3/5-0-|-7-|
|--0--8--3/5-0-|-7-|
|--0--8--3/5-0-|-7-|

ok im getting lazy just listen to the song for the rhythm

|-----------------------------------|
|-----------------------------------|
|-----------------------------------|
|--0---8-7-8-7-7---0---8-7-7-11-11--|x4
|--0---8-7-8-7-7---0---8-7-7-11-11--|
|--0---8-7-8-7-7---0---8-7-7-11-11--|


|-------------------------|-----------|
|-------------------------|-----------|
|-------------------------|-----------|
|-------------------------|-----------|x8
|--0--0-0-0-0--0-0-0-0-0--|--0--0--0--|
|--0--0-0-0-0--0-0-0-0-0--|--0--0--0--|
   .  . . . .  . . . . .     .  .  .   
                          play 5th and 6th
                          times
Добавлено: 25.10.2013
Другие материалы по этой песне:

Страница создана 28.06.2013
http://primanota.ru/the-devil-wears-prada/forever-decay-chords.htm
Привет, Гость.
Предлагаем пройти революционный курс по гитаре.
Подарок от PrimaNota.Ru, забирай!