PrimaNota.ru - самый крупный в мире бесплатный архив песенных текстов, аккордов, табулатур и нот


The Devil Wears Prada - Home For Grave - таба, видео

Регистрация Запомнить меня
Войти через:  Facebook Google Twitter Vk Yandex Mail.ru

The Devil Wears Prada - Home For Grave - таба, видео

Печатать
Просмотров: 79
-------------------------------------------------------------------------------
                             Home For Grave - The Devil Wears Prada
-------------------------------------------------------------------------------
Tabbed by: Moonguy16
E-mail:dmtmurata@gmail.com

Tuning: DROP A (A E A D F# B)

To make the song easier, take a look at my cover. http://www.youtube.com/watch?v=ARzvNqznmfA

Verse Riff
|----------------|--------------------------------------------------------------|
|----------------|--------------------------------------------------------------|
|---10-10-10-10-|---10-10--7--7--------------------5--h7-----=------------------|
|----------------|---------------------------5--h7------------------------------|
|---8--8--8--8---|---8--8---5--5------------------------------------------------|
|----------------|-------------------0-0--0-------------------------------------|

|-------------------|----------------------------------------------------------|
|-------------------|----------------------------------------------------------|
|----12-12-12-12---|-----------------------------------------------------------|
|-------------------|----8--8--8--8--------------------------------------------|
|----10-10-10-10---|----8--8--8--8---------------------------------------------|
|-------------------|----8--8--8--8--0-0-0-------------------------------------|

|-------------------------------------|--------------------------------------|
|-------------------------------------|--------------------------------------|
|-------------------------------------|--------------------------------------|
|-------------------------------------|--------------------------------------|
|-------------------------------------|----------12+-------------------------|
|----0--0--0---10p--0--10--12h---0---|----0-0-0-----0------------------------|

|-----------------------------------------------------------------------------|
|-----------------------------------------------------------------------------|
|-----------------------------------------------------------------------------|
|-----------------------------------------------------------------------------|
|--------------15------12----------17-----------------------------------------|
|-----0-0-0-0-----0-0-----0-0-0-0-----17--------------------------------------|

|-----------------------------------0-----------------------------------------|
|---------------10-10--------13-13-10-----------------------------------------|
|---------------10-10--------10-10-10-----------------------------------------|
|---------------12-12--------12-12-12-----------------------------------------|
|-----------------------------------------------------------------------------|
|---------0-0-----------0-0---------------------------------------------------|

REPEAT VERSE RIFF

Pre-Chorus 1 (0:42 - 0:45)
|-----------------------------------------------------------------------------------|
|-----------------------------------------------------------------------------------|
|-----7-7-7-7---7-7-----------------------------------------------------------------|
|-----7-7-7-7---7-7--0--------------------------------------------------------------|
|-----5-5-5-5---5-5--0--------------------------------------------------------------|
|---------------------0-------------------------------------------------------------|

Chorus
|-------------------------------------|----------------------------------------|
|-------------------------------------|----------------------------------------|
|-------------------------------------|----------------------------------------|
|---X--X------------------------------|----------------------------------------|
|---X--X----12--10---X-X----10--12---|--X-X-X-X--12--10--X-X-----10---5--------|
|---X--X----8---8----X-X-----8---8---|--X-X-X-X---8---8---X-X--8---------------|


|------------------------------------------------------|-SECOND ENDING---------|
|------------------------------------------------------|-----------------------|
|---7-7----------7-7-7---------7-8-7--7-8-7--7-8-7----|------------------------|
|---7-7----------7-7-7---------7-8-7--7-8-7--7-8-7----|-7-8-7------------------|
|---5-5----X-X---5-5-5---X-X---5-6-5--5-6-5--5-6-5----|-5-6-5------------------|
|----------X-X-----------X-X---------------------------|--------0--------------|

REPEAT CHORUS

BREAK DOWN (1:19 - 1:21)
Since I don't want to tab out all of the breakdown patterns, I'm only going to tab the 
parts of the break downs that aren't open A chugs.
|---------------------------------------------------------------------------------|
|---------------------------------------------------------------------------------|
|--------------7b--7b--7b--7b-----------------------------------------------------|
|---------------------------------------------------------------------------------|
|---0-0-0-0-----------------------------------------------------------------------|
|---0-0-0-0-----------------------------------------------------------------------|

(1:25 - 1:29)
|----------------------------------|--------------------------------------------|
|----------------------------------|--------------------------------------------|
|----------------------------------|--------------------------------------------|
|----------------------------------|-------------7------------------------------|
|---0-0-0-8--0------------12-10---|-------------5-------------------------------|
|---0-0-0-8--0---0-0-0-0--8--8----|----0-0-0-0----0-0-0-------------------------|

|--------------------------------------------------------------------------------|
|--------------------------------------------------------------------------------|
|----(PICK SLIDE)----------------------------------------------------------------|
|-------------------------7------------------------------------------------------|
|-------------------------5------------0--0--0--0--0---1-1-1---------------------|
|-----------------0-0-0-0---0-0-0-----0--0--0--0--0---1-1-1----------------------|

Verse Riff
|----------------|--------------------------------------------------------------|
|----------------|--------------------------------------------------------------|
|---10-10-10-10-|---10-10--7--7--------------------5--h7-----=------------------|
|----------------|---------------------------5--h7------------------------------|
|---8--8--8--8---|---8--8---5--5------------------------------------------------|
|----------------|-------------------0-0--0-------------------------------------|

|-------------------|----------------------------------------------------------|
|-------------------|----------------------------------------------------------|
|----12-12-12-12---|-----------------------------------------------------------|
|-------------------|----8--8--8--8--------------------------------------------|
|----10-10-10-10---|----8--8--8--8---------------------------------------------|
|-------------------|----8--8--8--8--0-0-0-------------------------------------|

|-------------------------------------|--------------------------------------|
|-------------------------------------|--------------------------------------|
|-------------------------------------|--------------------------------------|
|-------------------------------------|--------------------------------------|
|-------------------------------------|----------12+-------------------------|
|----0--0--0---10p--0--10--12h---0---|----0-0-0-----0------------------------|

|-----------------------------------------------------------------------------|
|-----------------------------------------------------------------------------|
|-----------------------------------------------------------------------------|
|-----------------------------------------------------------------------------|
|--------------15------12----------17-----------------------------------------|
|-----0-0-0-0-----0-0-----0-0-0-0-----17--------------------------------------|


|-----------------------------------0-----|---SECOND TIME ONLY--------------------|
|---------------10-10--------13-13-10----|-------10-10----------------------------|
|---------------10-10--------10-10-10----|-------10-10----------------------------|
|---------------12-12--------12-12-12----|-------12-12--------3-3-----------------|
|-----------------------------------------|--------------------1-1---0------------|
|---------0-0-----------0-0---------------|--0-0----------0-0-------0-------------|

REPEAT VERSE WITH THE SECOND ENDING

Pre-Chorus (Don't play anything)
|---------------------------------------------------------------------------|
|---------------------------------------------------------------------------|
|---------------------------------------------------------------------------|
|---------------------------------------------------------------------------|
|---------------------------------------------------------------------------|
|---------------------------------------------------------------------------|

Chorus
|-------------------------------------|----------------------------------------|
|-------------------------------------|----------------------------------------|
|-------------------------------------|----------------------------------------|
|---X--X------------------------------|----------------------------------------|
|---X--X----12--10---X-X----10--12---|--X-X-X-X--12--10--X-X-----10---5--------|
|---X--X----8---8----X-X-----8---8---|--X-X-X-X---8---8---X-X--8---------------|


|------------------------------------------------------|--SECOND ENDING--------|
|------------------------------------------------------|-----------------------|
|---7-7----------7-7-7---------7-8-7--7-8-7--7-8-7----|------------------------|
|---7-7----------7-7-7---------7-8-7--7-8-7--7-8-7----|-7-8-7------------------|
|---5-5----X-X---5-5-5---X-X---5-6-5--5-6-5--5-6-5----|-5-6-5------------------|
|----------X-X-----------X-X---------------------------|--------0--------------|


BREAK DOWN (2:38 - 2:40)
Since I don't want to tab out all of the breakdown patterns, I'm only going to tab the 
parts of the break downs that aren't open A chugs.
|---------------------------------------------------------------------------------|
|---------------------------------------------------------------------------------|
|--------------7b--7b--7b--7b-----------------------------------------------------|
|---------------------------------------------------------------------------------|
|---0-0-0-0-----------------------------------------------------------------------|
|---0-0-0-0-----------------------------------------------------------------------|

(2:47 - 2:50)
|----------------------------------|--------------------------------------------|
|----------------------------------|--------------------------------------------|
|----------------------------------|--------------------------------------------|
|----------------------------------|-------------7------------------------------|
|---0-0-0-8--0------------12-10---|-------------5-------------------------------|
|---0-0-0-8--0---0-0-0-0--8--8----|----0-0-0-0----0-0-0-------------------------|

|--------------------------------------------------------------------|
|--------------------------------------------------------------------|
|--------------------------------------------------------------------|
|-------------7------------------------------------------------------|
|-------------5----------0--0--0--0--0---1-1-1-----------------------|
|----0-0-0-0---0-0-0-----0--0--0--0--0---1-1-1-----------------------|

(3:06 - 3:08)
|---------------------------------------------------------------------------------|
|---------------------------------------------------------------------------------|
|--------------7b--7b--7b--7b-----------------------------------------------------|
|---------------------------------------------------------------------------------|
|---0-0-0-0-----------------------------------------------------------------------|
|---0-0-0-0-----------------------------------------------------------------------|



************************************

| /   slide up
| \   slide down
| h   hammer-on
| p   pull-off
| ~   vibrato
| +   harmonic
| x   Mute note
| b   Bend
| pb  Pre-bend
| br  Bend release
| pbr Pre-bend release
| brb Bend release bend

************************************
Добавлено: 01.02.2014
Другие материалы по этой песне:
  • Аккорды и текст

Страница создана 01.02.2014
http://primanota.ru/the-devil-wears-prada/home-for-grave-chords.htm
Привет, Гость.
Предлагаем пройти революционный курс по гитаре.
Подарок от PrimaNota.Ru, забирай!