PrimaNota.ru - самый крупный в мире бесплатный архив песенных текстов, аккордов, табулатур и нот


The Devil Wears Prada - Escape - текст песни, таба, видео

Регистрация Запомнить меня
Войти через:  Facebook Google Twitter Vk Yandex Mail.ru

The Devil Wears Prada - Escape - текст песни, таба, видео

Печатать
Просмотров: 132
-------------------------------------------------------------------------------
			     Escape - The Devil Wears Prada
-------------------------------------------------------------------------------
Tabbed by: Rsxkilla
Email:gpknights19@hotmail.com

Tuning:Drop B

my video for the song: http://www.youtube.com/watch?v=VHJN9qhF5Oc


	0:46-57
	(all notes are tremelo picked)
C#|-------------------------------------------------------|
G#|-------------------------------------------------------|
E |-------------------------------------------------------|
B |-------------------------------------------------------|
F#|-----------------0t------------0t-1t-4t-1t-0t-1-4t-1t--|
B |--0t---1t---4t--------0t---1t--------------------------|(x2)

	0:57-1:03
C#|----------------------|-------------|
G#|----------------------|-------------|
E |----------------------|-------------|
B |--0--0--------0-------|-0--0------0-|
F#|--0--0--0-0-0-0--0-0-0|-0--0--0-0-0-|(fourth time play the 2nd bar)
B |--0--0--0-0-0-0--0-0-0|-0--0--0-0-0-|(x4)

	OH MY GOD THEYRE EVERYWHERE!
	1:03-:17
C#|----------------------------------------------------------------------|
G#|----------------------------------------------------------------------|
E |----------------------------------------------------------------------|
B |----1----------------1----------------1-------------------------------|
F#|-0--1--0----------0--1--0----------0--1--0-----------4*-3*------------|
B |-0--1--0-4-3-1-0--0--1--0-4-3-1-0--0--1--0-4-3-1-0--------4*-3*-4*-3*-|(x2)


	1:18-29
C#|--------------------------------------------------------------|
G#|--------------------------------------------------------------|
E |--------------------------------------------------------------|
B |----------------0---------------------------------------------|
F#|--0-0--0-0--0-0-0-----0-0--0-0--0-0--0-0----------------------|
B |--0-0--0-0--0-0-0-----0-0--0-0--0-0--0-0-----0t--1b-----------|

C#|--------------------------------------------------------------|
G#|--------------------------------------------------------------|
E |--------------------------------------------------------------|
B |--------------------------------------------------------------|
F#|--0-0--0-0--------3*-------1-1-1--2-2-2--3-3-3--2-2-2--1-1-1--|
B |--0-0--0-0--0-0-0----0-0---1-1-1--2-2-2--3-3-3--2-2-2--1-1-1--|

	1:30-40
C#|-----------------------------------------------------------|
G#|-----------------------------------------------------------|
E |-----------------------------------------------------------|
B |-----------------------------------------------------------|
F#|-----------------------------------------------------------|
B |--8t---7t--5t--4t----1t--4t---8t---7t--5t--4t----1t--0t----|

	1:41-2:03  (2nd time let the 1's ring out)
C#|--------------------------------------------------------------------|
G#|---------6~--6~~-------8~--8~~-------6~--6~~------------------------|
E |-----------7~------------9~------------7~---------------------------|
B |--------------------------------------------------------------------|
F#|--0-0-0----------8-8-8---------0-0-0--------5-5-5-5--1-1-1-1--1-1-1-|
B |--0-0-0----------8-8-8---------0-0-0--------5-5-5-5--1-1-1-1--1-1-1-|(2x)

	2:04-15
C#|-------------------------------------------------------|
G#|-------------------------------------------------------|
E |-------------------------------------------------------|
B |-------------------------------------------------------|
F#|-----------------0t------------0t-1t-4t-1t-0t-1-4t-1t--|
B |--0t---1t---4t--------0t---1t--------------------------|(x2)

	2:16-30
C#|----------------------|
G#|----------------------|
E |----------------------|
B |--0--0--------0-------|
F#|--0--0--0-0-0-0--0-0-0|
B |--0--0--0-0-0-0--0-0-0|(x2)

	(rhythm may be slightly off on the breakdowns)
C#|---------------------------|-------------------------------------------------|
G#|---------------------------|-------------------------------------------------|
E |---------------------------|-------------------------------------------------|
B |---------------------------|-------------------------------------------------|
F#|--0--0--0-0-0-0--0-0-0-0-0-|--0--0--0--0-0-0--0-0-0--0t-1t-4t-1t-0t-1-4t-1t--|
B |--1--1--1-1-1-1--1-1-1-1-1-|--1--1--1--1-1-1--1-1-1--------------------------|(x2)


	2:31-36
C#|-----------------------------------------------------------------------|
G#|-----------------------------------------------------------------------|
E |-----------------------------------------------------------------------|
B |----1----------------1----------------1--------------1--0--1--0--------|
F#|-0--1--0----------0--1--0----------0--1--0-----------1--0--1--0--0-0-0-|
B |-0--1--0-4-3-1-0--0--1--0-4-3-1-0--0--1--0-4-3-1-0---1--0--1--0--0-0-0-|

	2:37-53 (strumming patterns may be differnt i just guessed for tab)
C#|--------------------------------------------------------------------------------|
G#|--------------------------------------------------------------------------------|
E |--------------------------------------------------------------------------------|
B |--0-------1-----0-------1------5-----8------0-----------------0-----------------|
F#|--0(x12)--1(x4)-0(x12)--1(x4)--5(x8)-8(x8)--0--0-0-0-1--1-1-1-0--0-0-0-1--1-1-1-|
B |--0-------1-----0-------1------5-----8------0--0-0-0-1--1-1-1-0--0-0-0-1--1-1-1-|

	2:37-3:06
C#|-------------------------------|
G#|-------------------------------|
E |--7~~-8~~-7~~-7~~-8~~-7~~------|
B |--6~~-7~~-6~~-6~~-7~~-6~~------|
F#|---------------------------0---|
B |---------------------------0---|

   3:10-32 (on 2nd and 4th repeat play the fill and only play (3) 0,1's)
C#|-----------------------------------------------|----------|
G#|-----------------------------------------------|----------|
E |-----------------------------------------------|--6-7-8-9-|
B |-----------------------------------------------|--5-6-7-8-|
F#|--0---0---0---0--0---0---0---0---0---0--0---0--|----------|
B |--0---0---0---0--0---0---1---1---1---1--1---1--|----------|(x4)

	3:33-47
	     pickslide
C#|----------------------------------------------------------------------------------|
G#|----------------------------------------------------------------------------------|
E |----------------------------------------------------------------------------------|
B |--0~~-1~~-///---------------------------------------------------------------------|
F#|--0~~-1~~-///--1t--5t-3t-1t-5t-3t-1t-0t-----1t--5t-3t-1t-5t-3t-1t-4t--5t--4t--1t--|
B |--0~~-1~~-///---------------------------4t----------------------------------------|


	3:48-4:10  (2nd time let the 1's ring out)
C#|--------------------------------------------------------------------|
G#|---------6~--6~~-------8~--8~~-------6~--6~~------------------------|
E |-----------7~------------9~------------7~---------------------------|
B |--------------------------------------------------------------------|
F#|--0-0-0----------8-8-8---------0-0-0--------5-5-5-5--1-1-1-1--1-1-1-|
B |--0-0-0----------8-8-8---------0-0-0--------5-5-5-5--1-1-1-1--1-1-1-|(2x)

	4:11-35
	(all notes are tremelo picked)
C#|-------------------------------------------------------|
G#|-------------------------------------------------------|
E |-------------------------------------------------------|
B |-------------------------------------------------------|
F#|-----------------0t------------0t-1t-4t-1t-0t-1-4t-1t--|
B |--0t---1t---4t--------0t---1t--------------------------|(x2)

	
C#|-------------|
G#|-------------|
E |-------------|
B |-----0~~~~---|
F#|--0--0~~~~---|
B |--0--0~~~~---|

START THE CHAINSAWS!!!!!!!!!!!

************************************

| t   tremolo picking
| /   slide up
| \   slide down
| h   hammer-on
| p   pull-off
| ~   vibrato
| +   harmonic
| x   Mute note
| b   Bend
| pb  Pre-bend
| br  Bend release
| pbr Pre-bend release
| brb Bend release bend

************************************
Добавлено: 25.11.2013
Другие материалы по этой песне:
  • Аккорды и текст

Страница создана 18.08.2013
http://primanota.ru/the-devil-wears-prada/escape-chords.htm
Привет, Гость.
Предлагаем пройти революционный курс по гитаре.
Подарок от PrimaNota.Ru, забирай!