PrimaNota.ru - самый крупный в мире бесплатный архив песенных текстов, аккордов, табулатур и нот


The Devil Wears Prada - Outnumbered - текст песни, таба, бас-таба, видео

Регистрация Запомнить меня
Войти через:  Facebook Google Twitter Vk Yandex Mail.ru

The Devil Wears Prada - Outnumbered - текст песни, таба, бас-таба, видео

Печатать
Просмотров: 199
Уроки эстрадного вокала в Санкт-Петербурге
My first tab ever so email me if there are any corrections/questions/commens - camrin69@gmail.com

Db|--------------------------------------------------------------------|
G#|--------------------------------------------------------------------|
E |--------------------------------------------------------------------|
B |--------------------------------------------77--88----1010----101012| x4
F#|554488775-554488775----------554488775-5544---88--1010----1212------|
B |--------------------88775544----------------------------------------|

(obviously, the second time, pinch harmonic the last note)

Guitar 2 plays the open string in a rhythym I'll have you figure out on your own. Then 
the breakdown thing and then the weird stuff which goes like...

Db|------|
G#|------|
E |------|
B |8~-3-2|
F#|8~-3-2|
B |8~-3-2|

Db|-----------------------------------------------------|
G#|-----------------------------------------------------|
E |-----------------------------------------------------|
B |77-77-7-77-77\---------------------------------------| x2
F#|77-77-7-77-77\-----5-4-----------7----5-4----4h5p4--7|
B |88-88-8-88-88\--00-----00-8-7-00---00-----00---------|

(play the last bit after the second time again)

Db|o--------------------------------|
G#|---------------------------------|
E |---------------------------------|
B |-88888888888877775555555577777777|
F#|-88888888888877775555555577777777|
B |o88888888888877775555555577777777|

Db|-----------------------------o|
G#|------------------------------|
E |------------------------------|
B |------------------------5-3-2-|     x2
F#|----3h5-5b------3h5-5b--------|
B |0~----------0~---------------o|

There is a harmony for the 5-3-2 part that goes 8-7-5


Db|-----------------------------|
G#|-----------------------------|
E |-----------------------------|
B |-----------------------------| x2
F#|----3h5-5b------3h5-5b-------|
B |0~----------0~---------0-0-0-|

Db|o------------------------|
G#|-------------------------|
E |-------------------------|
B |-0~~~~8~~~~4~~~~~~0-2-3-2|
F#|-0~~~~8~~~~4~~~~~~0-2-3-2|
B |o0~~~~8~~~~4~~~~~~0-2-3-2|
		    . . . .

Db|-------------------------o|
G#|--------------------------|
E |--------------------------|
B |0~~~~8~~~~11~~~~~~0-2-3-2-|    x2
F#|0~~~~8~~~~11~~~~~~0-2-3-2-|
B |0~~~~8~~~~11~~~~~~0-2-3-2o|
		     . . . .

This breakdown is so hard to hear with the quality that is out right now so this is as 
as I can get.

Db|o--------------------------|
G#|---------------------------|
E |---------------------------|
B |-1-2-3-2-0-1--0-1--0-1--0-0|
F#|-1-2-3-2-0-1--0-1--0-1--0-0|
B |o1-2-3-2-0-1--0-1--0-1--0-0|
    . . . . .    . .  . .  . .


Db|-----------------------------o|
G#|------------------------------|
E |------------------------------|
B |1-2-3-2-0-1--0-1--0-1-0-------|   x2
F#|1-2-3-2-0-1--0-1--0-1-0-6*----|
B |1-2-3-2-0-1--0-1--0-1-0----00o|
   . . . . .    . .  . . .    ..

The harmonic isn't a pinch, it's hard to do with this tuning, too.

Second time through play this for the second part

Db|------------------------------|
G#|------------------------------|
E |------------------------------|
B |1-2-3-2-0-1--0-1--0-1-0-1-0---|
F#|1-2-3-2-0-1--0-1--0-1-0-1-0---|
B |1-2-3-2-0-1--0-1--0-1-0-1-0-3*|

Then play the beginning again

Then this

Guitar 1

Db|--------------------|
G#|--------------------|
E |--------------------|
B |--------------------|
F#|4-------5-------4-1-|
B |--0-0-0---0-0-0--0-0|
  |
  |
  |
Db|--------------------|
G#|--------------------|
E |--------------------|     x4
B |--------------------|
F#|7-------8-------7-4-|
B |--0-0-0---0-0-0--0-0|

Guitar 2^^
Then the chorus into the ending breakdown. The last note before the breakdown when he 
"tec" in "protection" is "4" on the B string. Hope that made sense.

Because I don't want to tab out the breakdown the off notes are "5" then "2" with a "8" 
"4" harmony. It makes sense to me so yea.

ending

Instead of playing the "5" then "2" bit just strum "4" on the B string into

Db|--------------------|
G#|--------------------|
E |--------------------|
B |77777777777777777---|
F#|xxxxxxxxxxxxxxxxx---|
B |55555555555555555---|

sorry if that doesn't make sense, i'm in a hurry.
Добавлено: 01.04.2012
Другие материалы по этой песне:

Страница создана 21.03.2012
http://primanota.ru/the-devil-wears-prada/outnumbered-chords.htm
Привет, Гость.
Предлагаем пройти революционный курс по гитаре.
Подарок от PrimaNota.Ru, забирай!