PrimaNota.ru - самый крупный в мире бесплатный архив песенных текстов, аккордов, табулатур и нот


The Devil Wears Prada - Dead Throne - таба, видео

Регистрация Запомнить меня
Войти через:  Facebook Google Twitter Vk Yandex Mail.ru

The Devil Wears Prada - Dead Throne - таба, видео

Печатать
Просмотров: 79
Song: Dead Throne
Artist: The Devil Wears Prada
Album: Dead Throne
Year: 2011
Tuning: Drop B






GUITAR 1



[Starting from 0:25]

Intro/Breakdown:

C#||--10-10-10-10-10-10-10-10-6-6-6-6-6-6-5-5-|
G#||---x--x--x--x--x--x--x--x-x-x-x-x-x-x-x-x-|
E ||---7--7--7--7--7--7--7--7-3-3-3-3-3-3-2-2-|
B ||------------------------------------------|
F#||------------------------------------------|
B ||------------------------------------------|


--5-5-----------------------------|--10-10-10-10-10-10-10-10-6-6-6-6-6-6-5-5-|
--x-x-7-7-7-7-7-7-7-7-7-7-8-8-8-8-|---x--x--x--x--x--x--x--x-x-x-x-x-x-x-x-x-|
--2-2-x-x-x-x-x-x-x-x-x-x-x-x-x-x-|---7--7--7--7--7--7--7--7-3-3-3-3-3-3-2-2-|
------4-4-4-4-4-4-4-4-4-4-5-5-5-5-|------------------------------------------|
----------------------------------|------------------------------------------|
----------------------------------|------------------------------------------|


--5-5-----------------------------|--10-10-10-10-10-10-10-10-6-6-6-6-6-6-5-5-|
--x-x-7-7-7-7-7-7-7-7-7-7-8-8-8-8-|---x--x--x--x--x--x--x--x-x-x-x-x-x-x-x-x-|
--2-2-x-x-x-x-x-x-x-x-x-x-x-x-x-x-|---7--7--7--7--7--7--7--7-3-3-3-3-3-3-2-2-|
------4-4-4-4-4-4-4-4-4-4-5-5-5-5-|------------------------------------------|
----------------------------------|------------------------------------------|
----------------------------------|------------------------------------------|


--5-5-----------------------------|--10-10-10-10-10-10-10-10-6-6-6-6-6-6-5-5-|
--x-x-7-7-7-7-7-7-7-7-7-7-8-8-8-8-|---x--x--x--x--x--x--x--x-x-x-x-x-x-x-x-x-|
--2-2-x-x-x-x-x-x-x-x-x-x-x-x-x-x-|---7--7--7--7--7--7--7--7-3-3-3-3-3-3-2-2-|
------4-4-4-4-4-4-4-4-4-4-5-5-5-5-|------------------------------------------|
----------------------------------|------------------------------------------|
----------------------------------|------------------------------------------|


                                        PM PM       PM PM PM PM PM     
--5-5-----------------------------|--------------------------------|
--x-x-7-7-7-7-7-7-7-7-7-7-8-8-8-8-|--------------------------------|
--2-2-x-x-x-x-x-x-x-x-x-x-x-x-x-x-|--------------------------------|
------4-4-4-4-4-4-4-4-4-4-5-5-5-5-|--------------------------------|
----------------------------------|--8--8--8--8--7--0--0--5--3--2--|
----------------------------------|--8--8--8--8--7--0--0--5--3--2--|





Verse:
                                           PM PM PM PM  
------------------------|------------------------------|
------------------------|------------------------------|
------------------------|------------------------------|
------------------------|------------------------------|
------------------------|--5b--------5b----5--5--3--2--|
--0--------------12\----|--------0-0-------5--5--3--2--|


  PM     PM PM PM PM PM PM                    PM PM PM PM     
---------------------------|------------------------------|
---------------------------|------------------------------|
---------------------------|------------------------------|
---------------------------|------------------------------|
--0--5b--0--5--3--2--3--5--|--5b--------5b----5--5--3--2--|
--0------0--5--3--2--3--5--|--------0-0-------5--5--3--2--|


  PM     PM PM PM PM                          PM PM PM PM  
---------------------------|------------------------------|
---------------------------|------------------------------|
---------------------------|------------------------------|
---------------------------|------------------------------|
--0--5b--0--5--3--2--------|--5b--------5b----5--5--3--2--|
--0------0--5--3--2--3~----|--------0-0-------5--5--3--2--|


  PM     PM PM PM PM PM PM                    PM PM PM PM  
---------------------------|------------------------------|
---------------------------|------------------------------|
---------------------------|------------------------------|
---------------------------|------------------------------|
--0--5b--0--5--3--2--3--5--|--5b--------5b----5--5--3--2--|
--0------0--5--3--2--3--5--|--------0-0-------5--5--3--2--|




	Breakdown:
  PM     PM PM                                               
-----------------------------|------------------------------|
-----------------------------|------------------------------|
-----------------------------|------------------------------|
-----------------------------|------------------------------|
--0--5b--0--5----------------|------------------------------|
--0------0--5--0-0-0-0-0-----|--0-0-0-0-0-----0-0-0-0-0-----|


----------------------------|------------------------------|
----------------------------|------------------------------|
----------------------------|------------------------------|
----------------------------|------------------------------|
----------------------------|------------------------------|
--0-0--0-0-----0-0--0-0-----|--0-0-0-0-0--0--0-0-0-0-0--0--|


                           PM PM   PM PM   PM PM PM PM   PM PM   PM PM               
------------------------|----------------------------------------------|----|
------------------------|----------------------------------------------|----|
------------------------|----------------------------------------------|----|
------------------------|----------------------------------------------|----|
------------------------|--0--0----0--0----0--0--0--0----0--0----0--0--|----|
--0-0--0-0--------------|--0--0----0--0----0--0--0--0----0--0----0--0--|----|


  PM PM   PM PM   PM PM PM PM   PM PM   PM PM                              
----------------------------------------------|------------------------|
----------------------------------------------|------------------------|
----------------------------------------------|------------------------|
----------------------------------------------|------------------------|
--0--0----0--0----0--0--0--0----0--0----0--0--|--8---5---0--5---3---0--|
--0--0----0--0----0--0--0--0----0--0----0--0--|--8---5---0--5---3---0--|


  PM PM   PM PM   PM PM PM PM   PM PM   PM PM       
----------------------------------------------|----|
----------------------------------------------|----|
----------------------------------------------|----|
----------------------------------------------|----|
--0--0----0--0----0--0--0--0----0--0----0--0--|----|
--0--0----0--0----0--0--0--0----0--0----0--0--|----|


  PM PM   PM PM   PM PM PM PM   PM PM   PM PM                              
----------------------------------------------|------------------------|
----------------------------------------------|------------------------|
----------------------------------------------|------------------------|
----------------------------------------------|------------------------|
--0--0----0--0----0--0--0--0----0--0----0--0--|--8---5---0--5---3---0--|
--0--0----0--0----0--0--0--0----0--0----0--0--|--8---5---0--5---3---0--|





Chorus:
            PM PM PM PM PM             PM PM PM PM PM  
---------------------------|--------------------------|
---------------------------|--------------------------|
--10-----------------------|--7-----------------------|
---------------------------|--------------------------|
------------0--0--0--0--0--|-----------0--0--0--0--0--|
------------0--0--0--0--0--|-----------0--0--0--0--0--|


           PM PM PM PM PM                            
--------------------------|-------------------------|
--------------------------|-------------------------|
--6-----------------------|--9---9---9--9b---9---9--|
--------------------------|-------------------------|
-----------0--0--0--0--0--|-------------------------|
-----------0--0--0--0--0--|-------------------------|


            PM PM PM PM PM             PM PM PM PM PM     
---------------------------|--------------------------|
---------------------------|--------------------------|
--10-----------------------|--7-----------------------|
---------------------------|--------------------------|
------------0--0--0--0--0--|-----------0--0--0--0--0--|
------------0--0--0--0--0--|-----------0--0--0--0--0--|


           PM PM PM PM PM                           
--------------------------|------------------------|
--------------------------|------------------------|
--6-----------------------|--9---9---9--9\---------|
--------------------------|------------------------|
-----------0--0--0--0--0--|------------------------|
-----------0--0--0--0--0--|------------------------|




Breakdown:
  PM PM   PM PM   PM PM PM PM   PM PM   PM PM     
----------------------------------------------|
----------------------------------------------|
----------------------------------------------|
----------------------------------------------|
--0--0----0--0----0--0--0--0----0--0----0--0--|
--0--0----0--0----0--0--0--0----0--0----0--0--|


  PM PM   PM PM   PM PM PM PM   PM PM   PM PM  
----------------------------------------------|
----------------------------------------------|
----------------------------------------------|
----------------------------------------------|
--0--0----0--0----0--0--0--0----0--0----0--0--|
--0--0----0--0----0--0--0--0----0--0----0--0--|


  PM PM   PM PM   PM PM PM PM   PM PM   PM PM                              
----------------------------------------------|------------------------|
----------------------------------------------|------------------------|
----------------------------------------------|------------------------|
----------------------------------------------|------------------------|
--0--0----0--0----0--0--0--0----0--0----0--0--|--8---5---0--5---3---0--|
--0--0----0--0----0--0--0--0----0--0----0--0--|--8---5---0--5---3---0--|


  PM PM   PM PM   PM PM PM PM   PM PM   PM PM  
----------------------------------------------|
----------------------------------------------|
----------------------------------------------|
----------------------------------------------|
--0--0----0--0----0--0--0--0----0--0----0--0--|
--0--0----0--0----0--0--0--0----0--0----0--0--|


  PM PM   PM PM   PM PM PM PM   PM PM   PM PM  
----------------------------------------------|
----------------------------------------------|
----------------------------------------------|
----------------------------------------------|
--0--0----0--0----0--0--0--0----0--0----0--0--|
--0--0----0--0----0--0--0--0----0--0----0--0--|


  PM PM   PM PM   PM PM PM PM   PM PM   PM PM                              
----------------------------------------------|------------------------|
----------------------------------------------|------------------------|
----------------------------------------------|------------------------|
----------------------------------------------|------------------------|
--0--0----0--0----0--0--0--0----0--0----0--0--|--8---5---0--5---3---0--|
--0--0----0--0----0--0--0--0----0--0----0--0--|--8---5---0--5---3---0--|





Verse 2:
--------------------------|--------------------------|
--------------------------|--------------------------|
--7--7--7--7--3--3--3--3--|--2-----------------------|
--------------------------|-----4--4--4--4--4--4--4--|
--------------------------|--------------------------|
--------------------------|--------------------------|


--------------------------|--------------------------|
--------------------------|--------------------------|
--------------3--3--3--3--|--2-----------------------|
--0--0--0--0--------------|-----4--4--4--4--4--4--4--|
--------------------------|--------------------------|
--------------------------|--------------------------|


--------------------------|--------------------------|
--------------------------|--------------------------|
--7--7--7--7--3--3--3--3--|--2-----------------------|
--------------------------|-----4--4--4--4--4--4--4--|
--------------------------|--------------------------|
--------------------------|--------------------------|


--------------------------|--------------------------|
--------------------------|--------------------------|
--7--7--7--7--3--3--3--3--|--2-----------------------|
--------------------------|-----4--4--4--4--4--4--4--|
--------------------------|--------------------------|
--------------------------|--------------------------|


--------------------------|--------------------------|
--------------------------|--------------------------|
--------------3--3--3--3--|--2-----------------------|
--0--0--0--0--------------|-----4--4--4--4--4--4--4--|
--------------------------|--------------------------|
--------------------------|--------------------------|


--------------------------|--------------------------|
--------------------------|--------------------------|
--------------3--3--3--3--|--2-----------------------|
--0--0--0--0--------------|-----4--4--4--4--4--4--4--|
--------------------------|--------------------------|
--------------------------|--------------------------|


--------------------------|--------------------------|
--------------------------|--------------------------|
--7--7--7--7--3--3--3--3--|--2-----------------------|
--------------------------|-----4--4--4--4--4--4--4--|
--------------------------|--------------------------|
--------------------------|--------------------------|


--------------------------|--------------------------|
--------------------------|--------------------------|
--7--7--7--7--3--3--3--3--|--2-----------------------|
--------------------------|-----4--4--4--4--4--4--4--|
--------------------------|--------------------------|
--------------------------|--------------------------|


---------------------------|--------------------------|
---------------------------|--------------------------|
---------------------------|--------------------------|
--5--5--5--5--5--5--5S--8--|--8--8--8--8--8--8--8--8--|
---------------------------|--------------------------|
---------------------------|--------------------------|





Outro/Breakdown:
--10-10-10-10-10-10-10-10-6-6-6-6-6-6-5-5-|--5-5-----------------------------|
---x--x--x--x--x--x--x--x-x-x-x-x-x-x-x-x-|--x-x-7-7-7-7-7-7-7-7-7-7-8-8-8-8-|
---7--7--7--7--7--7--7--7-3-3-3-3-3-3-2-2-|--2-2-x-x-x-x-x-x-x-x-x-x-x-x-x-x-|
------------------------------------------|------4-4-4-4-4-4-4-4-4-4-5-5-5-5-|
------------------------------------------|----------------------------------|
------------------------------------------|----------------------------------|

  
--10-10-10-10-10-10-10-10-6-6-6-6-6-6-5-5-|--5-5-----------------------------|
---x--x--x--x--x--x--x--x-x-x-x-x-x-x-x-x-|--x-x-7-7-7-7-7-7-7-7-7-7-8-8-8-8-|
---7--7--7--7--7--7--7--7-3-3-3-3-3-3-2-2-|--2-2-x-x-x-x-x-x-x-x-x-x-x-x-x-x-|
------------------------------------------|------4-4-4-4-4-4-4-4-4-4-5-5-5-5-|
------------------------------------------|----------------------------------|
------------------------------------------|----------------------------------|


--10-10-10-10-10-10-10-10-6-6-6-6-6-6-5-5-|--5-5-----------------------------|
---x--x--x--x--x--x--x--x-x-x-x-x-x-x-x-x-|--x-x-7-7-7-7-7-7-7-7-7-7-8-8-8-8-|
---7--7--7--7--7--7--7--7-3-3-3-3-3-3-2-2-|--2-2-x-x-x-x-x-x-x-x-x-x-x-x-x-x-|
------------------------------------------|------4-4-4-4-4-4-4-4-4-4-5-5-5-5-|
------------------------------------------|----------------------------------|
------------------------------------------|----------------------------------|


--10-10-10-10-10-10-10-10-6-6-6-6-6-6-5-5-|--5-5-----------------------------|
---x--x--x--x--x--x--x--x-x-x-x-x-x-x-x-x-|--x-x-7-7-7-7-7-7-7-7-7-7-8-8-8-8-|
---7--7--7--7--7--7--7--7-3-3-3-3-3-3-2-2-|--2-2-x-x-x-x-x-x-x-x-x-x-x-x-x-x-|
------------------------------------------|------4-4-4-4-4-4-4-4-4-4-5-5-5-5-|
------------------------------------------|----------------------------------|
------------------------------------------|----------------------------------|

                 
-------------------|-------------------|-------------------|-------------------|
-------------------|-------------------|-------------------|-------------------|
--7----------------|-------------------|-------------------|-------------------|
--5----------------|-------------------|-------------------|-------------------|
--5----------------|-------------------|-------------------|-------------------|
--5----------------|-------------------|-------------------|-------------------|





GUITAR 2




Intro/Breakdown:
         PM PM PM PM PM PM PM PM PM PM PM PM PM PM  
C#||-----------------------------------------------|
G#||-----------------------------------------------|
E ||-----------------------------------------------|
B ||-----------------------------------------------|
F#||-----0--0--0--0--0--0--0--0--0--0--0--0--0--0--|
B ||--0--0--0--0--0--0--0--0--0--0--0--0--0--0--0--|


  PM PM PM PM   PM PM PM PM PM   PM  
------------------------------------|
------------------------------------|
------------------------------------|
------------------------------------|
--0--0--0--0----0--0--0--0--0----0--|
--0--0--0--0----0--0--0--0--0----0--|


     PM PM PM PM PM PM PM PM PM PM PM PM PM PM  
-----------------------------------------------|
-----------------------------------------------|
-----------------------------------------------|
-----------------------------------------------|
-----0--0--0--0--0--0--0--0--0--0--0--0--0--0--|
--0--0--0--0--0--0--0--0--0--0--0--0--0--0--0--|


  PM PM PM PM   PM PM PM PM PM   PM                          
------------------------------------|-----------------------|
------------------------------------|-----------------------|
------------------------------------|-----------------------|
------------------------------------|-----------------------|
--0--0--0--0----0--0--0--0--0----0--|------------0-------0--|
--0--0--0--0----0--0--0--0--0----0--|--0---------0-------0--|


-------------------------|---------------------------------|
-------------------------|---------------------------------|
-------------------------|---------------------------------|
-------------------------|---------------------------------|
------------------8--\---|---------------------------------|
---------0--5--0--8--\---|--0--0-0-0-0-0-0-0-0-0-0-0-0-0-0-|


                                    PM PM       PM PM PM PM PM  
------------------------------|--------------------------------|
------------------------------|--------------------------------|
------------------------------|--------------------------------|
------------------------------|--------------------------------|
------------------------------|--8--8--8--8--7--0--0--5--3--2--|
--0-0-0-0----0--0-0-0-0----0--|--8--8--8--8--7--0--0--5--3--2--|





				Verse:
                                           PM PM PM PM  
------------------------|------------------------------|
------------------------|------------------------------|
------------------------|------------------------------|
------------------------|------------------------------|
------------------------|--5b--------5b----5--5--3--2--|
--0--------------12\----|--------0-0-------5--5--3--2--|


  PM     PM PM PM PM PM PM                    PM PM PM PM  
---------------------------|------------------------------|
---------------------------|------------------------------|
---------------------------|------------------------------|
---------------------------|------------------------------|
--0--5b--0--5--3--2--3--5--|--5b--------5b----5--5--3--2--|
--0------0--5--3--2--3--5--|--------0-0-------5--5--3--2--|


  PM     PM PM PM PM                          PM PM PM PM     
---------------------------|------------------------------|
---------------------------|------------------------------|
---------------------------|------------------------------|
---------------------------|------------------------------|
--0--5b--0--5--3--2--------|--8b--------8b----5--5--3--2--|
--0------0--5--3--2--3~----|--------0-0-------5--5--3--2--|


  PM     PM PM PM PM PM PM                    PM PM PM PM  
---------------------------|------------------------------|
---------------------------|------------------------------|
---------------------------|------------------------------|
---------------------------|------------------------------|
--0--8b--0--5--3--2--3--5--|--8b--------8b----5--5--3--2--|
--0------0--5--3--2--3--5--|--------0-0-------5--5--3--2--|





	Breakdown:
  PM     PM PM                                               
-----------------------------|------------------------------|
-----------------------------|------------------------------|
-----------------------------|------------------------------|
-----------------------------|------------------------------|
--0--8b--0--5----------------|------------------------------|
--0------0--5--0-0-0-0-0-----|--0-0-0-0-0--0--0-0-0-0-0--0--|


----------------------------|------------------------------|
----------------------------|------------------------------|
----------------------------|------------------------------|
----------------------------|------------------------------|
----------------------------|------------------------------|
--0-0--0-0--0--0-0--0-0--0--|--0-0-0-0-0-----0-0-0-0-0-----|


                           PM PM   PM PM   PM PM PM PM   PM PM   PM PM     
------------------------|----------------------------------------------|
------------------------|----------------------------------------------|
------------------------|----------------------------------------------|
------------------------|----------------------------------------------|
------------------------|--0--0----0--0----0--0--0--0----0--0----0--0--|
--0-0--0-0--------------|--0--0----0--0----0--0--0--0----0--0----0--0--|


  PM PM   PM PM   PM PM PM PM   PM PM   PM PM     
----------------------------------------------|
----------------------------------------------|
----------------------------------------------|
----------------------------------------------|
--0--0----0--0----0--0--0--0----0--0----0--0--|
--0--0----0--0----0--0--0--0----0--0----0--0--|


  PM PM   PM PM   PM PM PM PM   PM PM   PM PM                           
----------------------------------------------|------------------------|
----------------------------------------------|------------------------|
----------------------------------------------|------------------------|
----------------------------------------------|------------------------|
--0--0----0--0----0--0--0--0----0--0----0--0--|--8---5---0--5---3---0--|
--0--0----0--0----0--0--0--0----0--0----0--0--|--8---5---0--5---3---0--|


  PM PM   PM PM   PM PM PM PM   PM PM   PM PM     
----------------------------------------------|
----------------------------------------------|
----------------------------------------------|
----------------------------------------------|
--0--0----0--0----0--0--0--0----0--0----0--0--|
--0--0----0--0----0--0--0--0----0--0----0--0--|


  PM PM PM PM PM PM PM PM PM PM PM PM PM PM PM PM  
--------------------------------------------------|
--------------------------------------------------|
--------------------------------------------------|
--------------------------------------------------|
--0--0--0--0--0--0--1--1--0--0--0--0--0--0--1--1--|
--0--0--0--0--0--0--1--1--0--0--0--0--0--0--1--1--|


  PM PM   PM PM   PM PM PM PM   PM PM   PM PM                           
----------------------------------------------|------------------------|
----------------------------------------------|------------------------|
----------------------------------------------|------------------------|
----------------------------------------------|------------------------|
--0--0----0--0----0--0--0--0----0--0----0--0--|--8---5---0--5---3---0--|
--0--0----0--0----0--0--0--0----0--0----0--0--|--8---5---0--5---3---0--|





Chorus:
            PM PM PM PM PM             PM PM PM PM PM  
---------------------------|--------------------------|
---------------------------|--------------------------|
--10-----------------------|--7-----------------------|
---x-----------------------|--x-----------------------|
---8--------0--0--0--0--0--|--5--------0--0--0--0--0--|
------------0--0--0--0--0--|-----------0--0--0--0--0--|


           PM PM PM PM PM                      PM PM PM PM PM  
--------------------------|-------|---------------------------|
--------------------------|-------|---------------------------|
--6-----------------------|-------|--10-----------------------|
--x-----------------------|-------|---x-----------------------|
--4--------0--0--0--0--0--|-------|---8--------0--0--0--0--0--|
-----------0--0--0--0--0--|-------|------------0--0--0--0--0--|


           PM PM PM PM PM             PM PM PM PM PM                     
--------------------------|--------------------------|-------|
--------------------------|--------------------------|-------|
--7-----------------------|--6-----------------------|-------|
--x-----------------------|--x-----------------------|-------|
--5--------0--0--0--0--0--|--4--------0--0--0--0--0--|-------|
-----------0--0--0--0--0--|-----------0--0--0--0--0--|-------|





Breakdown:
  PM PM   PM PM   PM PM PM PM   PM PM   PM PM  
----------------------------------------------|
----------------------------------------------|
----------------------------------------------|
----------------------------------------------|
--0--0----0--0----0--0--0--0----0--0----0--0--|
--0--0----0--0----0--0--0--0----0--0----0--0--|


  PM PM   PM PM   PM PM PM PM   PM PM   PM PM  
----------------------------------------------|
----------------------------------------------|
----------------------------------------------|
----------------------------------------------|
--0--0----0--0----0--0--0--0----0--0----0--0--|
--0--0----0--0----0--0--0--0----0--0----0--0--|


  PM PM   PM PM   PM PM PM PM   PM PM   PM PM                           
----------------------------------------------|------------------------|
----------------------------------------------|------------------------|
----------------------------------------------|------------------------|
----------------------------------------------|------------------------|
--0--0----0--0----0--0--0--0----0--0----0--0--|--8---5---0--5---3---0--|
--0--0----0--0----0--0--0--0----0--0----0--0--|--8---5---0--5---3---0--|


  PM PM   PM PM   PM PM PM PM   PM PM   PM PM  
----------------------------------------------|
----------------------------------------------|
----------------------------------------------|
----------------------------------------------|
--0--0----0--0----0--0--0--0----0--0----0--0--|
--0--0----0--0----0--0--0--0----0--0----0--0--|


  PM PM   PM PM   PM PM PM PM   PM PM   PM PM  
----------------------------------------------|
----------------------------------------------|
----------------------------------------------|
----------------------------------------------|
--0--0----0--0----0--0--0--0----0--0----0--0--|
--0--0----0--0----0--0--0--0----0--0----0--0--|


  PM PM   PM PM   PM PM PM PM   PM PM   PM PM                           
----------------------------------------------|------------------------|
----------------------------------------------|------------------------|
----------------------------------------------|------------------------|
----------------------------------------------|------------------------|
--0--0----0--0----0--0--0--0----0--0----0--0--|--8---5---0--5---3---0--|
--0--0----0--0----0--0--0--0----0--0----0--0--|--8---5---0--5---3---0--|





Verse 2:
     PM PM PM PM PM PM PM    PM PM PM PM PM    PM     
--------------------------|--------------------------|
--------------------------|--------------------------|
--------------------------|--------------------------|
--------------------------|--------------------------|
--0--0--0--0--0--0--0--0--|--0--0--0--0--0-----0-----|
--0--0--0--0--0--0--0--0--|--0--0--0--0--0--0--0--0--|


     PM PM PM PM PM PM PM    PM PM PM PM PM    PM     
--------------------------|--------------------------|
--------------------------|--------------------------|
--------------------------|--------------------------|
--------------------------|--------------------------|
--0--0--0--0--0--0--0--0--|--0--0--0--0--0-----0-----|
--0--0--0--0--0--0--0--0--|--0--0--0--0--0--0--0--0--|


     PM PM PM PM PM PM PM    PM PM PM PM PM    PM     
--------------------------|--------------------------|
--------------------------|--------------------------|
--------------------------|--------------------------|
--------------------------|--------------------------|
--5--5--5--5--5--5--5--5--|--5--5--5--5--5-----5-----|
--5--5--5--5--5--5--5--5--|--5--5--5--5--5--5--5--5--|


     PM PM PM PM PM PM PM    PM PM PM PM PM    PM     
--------------------------|--------------------------|
--------------------------|--------------------------|
--------------------------|--------------------------|
--------------------------|--------------------------|
--1--1--1--1--1--1--1--1--|--1--1--1--1--1-----1-----|
--1--1--1--1--1--1--1--1--|--1--1--1--1--1--1--1--1--|


     PM PM PM PM PM PM PM    PM PM PM PM PM    PM        
--------------------------|--------------------------|
--------------------------|--------------------------|
--------------------------|--------------------------|
--------------------------|--------------------------|
--0--0--0--0--0--0--0--0--|--0--0--0--0--0-----0-----|
--0--0--0--0--0--0--0--0--|--0--0--0--0--0--0--0--0--|


     PM PM PM PM PM PM PM    PM PM PM PM PM    PM        
--------------------------|--------------------------|
--------------------------|--------------------------|
--------------------------|--------------------------|
--------------------------|--------------------------|
--0--0--0--0--0--0--0--0--|--0--0--0--0--0-----0-----|
--0--0--0--0--0--0--0--0--|--0--0--0--0--0--0--0--0--|


     PM PM PM PM PM PM PM    PM PM PM PM PM    PM        
--------------------------|--------------------------|
--------------------------|--------------------------|
--------------------------|--------------------------|
--------------------------|--------------------------|
--5--5--5--5--5--5--5--5--|--5--5--5--5--5-----5-----|
--5--5--5--5--5--5--5--5--|--5--5--5--5--5--5--5--5--|


     PM PM PM PM PM PM PM    PM PM PM PM PM    PM                              
--------------------------|--------------------------|---------------------|
--------------------------|--------------------------|---------------------|
--------------------------|--------------------------|---------------------|
--------------------------|--------------------------|---------------------|
--1--1--1--1--1--1--1--1--|--1--1--1--1--1-----1-----|---------------------|
--1--1--1--1--1--1--1--1--|--1--1--1--1--1--1--1--1--|--0------------------|





	Outro/Breakdown:
             PM PM PM PM PM PM PM PM PM PM PM PM PM PM  
-------|-----------------------------------------------|
-------|-----------------------------------------------|
-------|-----------------------------------------------|
-------|-----------------------------------------------|
-------|-----0--0--0--0--0--0--0--0--0--0--0--0--0--0--|
-------|--0--0--0--0--0--0--0--0--0--0--0--0--0--0--0--|


  PM PM PM PM   PM PM PM PM PM   PM  
------------------------------------|
------------------------------------|
------------------------------------|
------------------------------------|
--0--0--0--0----0--0--0--0--0----0--|
--0--0--0--0----0--0--0--0--0----0--|


     PM PM PM PM PM PM PM PM PM PM PM PM PM PM  
-----------------------------------------------|
-----------------------------------------------|
-----------------------------------------------|
-----------------------------------------------|
-----0--0--0--0--0--0--0--0--0--0--0--0--0--0--|
--0--0--0--0--0--0--0--0--0--0--0--0--0--0--0--|


  PM PM PM PM   PM PM PM PM PM   PM  
------------------------------------|
------------------------------------|
------------------------------------|
------------------------------------|
--0--0--0--0----0--0--0--0--0----0--|
--0--0--0--0----0--0--0--0--0----0--|


     PM PM PM PM PM PM PM PM PM PM PM PM PM PM  
-----------------------------------------------|
-----------------------------------------------|
-----------------------------------------------|
-----------------------------------------------|
-----0--0--0--0--0--0--0--0--0--0--0--0--0--0--|
--0--0--0--0--0--0--0--0--0--0--0--0--0--0--0--|


  PM PM PM PM   PM PM PM PM PM   PM  
------------------------------------|
------------------------------------|
------------------------------------|
------------------------------------|
--0--0--0--0----0--0--0--0--0----0--|
--0--0--0--0----0--0--0--0--0----0--|


     PM PM PM PM PM PM PM PM PM PM PM PM PM PM  
-----------------------------------------------|
-----------------------------------------------|
-----------------------------------------------|
-----------------------------------------------|
-----0--0--0--0--0--0--0--0--0--0--0--0--0--0--|
--0--0--0--0--0--0--0--0--0--0--0--0--0--0--0--|


  PM PM PM PM   PM PM PM PM PM   PM                                                           
------------------------------------|-------------------|-------------------|
------------------------------------|-------------------|-------------------|
------------------------------------|--7----------------|-------------------|
------------------------------------|--5----------------|-------------------|
--0--0--0--0----0--0--0--0--0----0--|--5----------------|-------------------|
--0--0--0--0----0--0--0--0--0----0--|--5----------------|-------------------|

                 
-------------------|-------------------|-------------------|-------------------|
-------------------|-------------------|-------------------|-------------------|
-------------------|-------------------|-------------------|-------------------|
-------------------|-------------------|-------------------|-------------------|
-------------------|-------------------|-------------------|-------------------|
-------------------|-------------------|-------------------|-------------------|




Tablature Legend
----------------
PM – Palm Mute
L - tied note
x - dead note
g - grace note
NH - natural harmonic
SH - semi harmonic
PH - pitch harmonic
h - hammer on
p - pull off
b - bend

Добавлено: 12.09.2013
Другие материалы по этой песне:
  • Аккорды и текст

Страница создана 30.06.2013
http://primanota.ru/the-devil-wears-prada/dead-throne-chords.htm
Привет, Гость.
Предлагаем пройти революционный курс по гитаре.
Подарок от PrimaNota.Ru, забирай!