PrimaNota.ru - самый крупный в мире бесплатный архив песенных текстов, аккордов, табулатур и нот


Styx - Man Of Miracles - текст песни, бас-таба, видео

Регистрация Запомнить меня
Войти через:  Facebook Google Twitter Vk Yandex Mail.ru

Styx - Man Of Miracles - текст песни, бас-таба, видео

Печатать
Просмотров: 123
Авторы музыки: James Young, Ray Brandle, Dennis DeYoung

Styx Man of Miracles

standard tuning

:40                                                      1:13
G|-----------------------------------------------------------------------|
D|----1--3---------1--3------3--6--8--3------1--3--------3--3-3-1--3-1---|
A|-3--------3---3--------3----------------3--------3-------------------3-|
E|-----------------------------------------------------------------------|

1:27 x2
G|-----------------------------------------------------------------------------|
D|-3--1---------------1-1------------4-3-4-3-4-3-----------------1-1-----------|
A|-------1-3-3-3--1-3------1-3--1-3--------------1--1-3-3-3--1-3------1-3--1-3-|
E|-----------------------------------------------------------------------------|

2:04
G|------------------------------------------------------------------------------|
D|-3--1---------------1-1------------4-3-4-3-4-3--------------------3--3--3-1---|
A|-------1-3-3-3--1-3------1-3--1-3--------------1--3--1-3--3--1-3------------3-|
E|------------------------------------------------------------------------------|

2:16
G|------------------------------------------------------------------|
D|----3-----3--1-3--3-1---------3---6-5---------------1-1-----------|
A|-1-----3--------------3---1------------1-3-3-3--1-3------1-3--1-3-|
E|------------------------------------------------------------------|

2:31 x2
G|-----------------------------------------------------------------------------|
D|-3--1---------------1-1------------4-3-4-3-4-3-----------------1-1-----------|
A|-------1-3-3-3--1-3------1-3--1-3--------------1--1-3-3-3--1-3------1-3--1-3-|
E|-----------------------------------------------------------------------------|

2:55
G|----------------------------------------------------------------------------------|
D|-3--1---------------1-1------------4-3-4-3-4-3--------------------3--1-3-1--3-1---|
A|-------1-3-3-3--1-3------1-3--1-3--------------1--3--1-3--3--1-3----------------3-|
E|----------------------------------------------------------------------------------|

3:08
G|--------------------------------------------------------------------|
D|----3-----3--1-3-1--3-1---------3---6-5---------------1-1-----------|
A|-1-----3----------------3---1------------1-3-3-3--1-3------1-3--1-3-|
E|--------------------------------------------------------------------|

3:22
G|-------------------------------------------------|
D|-3--1---------------1-1------------4-3-4-3-4-3---|
A|-------1-3-3-3--1-3------1-3--1-3--------------1-|
E|-------------------------------------------------|

3:29
G|-------------------------------------------------------------------------|
D|-------------------------------------33333333-33333333-66666666-66666666-|
A|-33333333-33333333-11111111-11111111-------------------------------------|
E|-------------------------------------------------------------------------|

3:40
G|-------------------------------------------------------------------------|
D|-------------------------------------33333333-33333333-66666666-88888888-|
A|-33333333-33333333-11111111-11111111-------------------------------------|
E|-------------------------------------------------------------------------|

3:52
G|-----------------------------------------10-8-10-----------|
D|----3--8-10-8-10---------3--8--8------3---------------1--6-|
A|-3---------------10---1------------1-----------------------|
E|---------------------------------------------------4-------|

4:04
G|----------------------------------------10-8-10--------------------|
D|----3--8-10-8-10------3--8------3--8-10---------------3--------3---|
A|-3-----------------1---------3--------------------3--3--3--1--1--1-|
E|-------------------------------------------------------------------|

4:16                                                     4:43
G|-----------------------------------------------------------------------|
D|----1--3---------1--3------3--6--8--3------1--3--------3--3-3-1--3-1---|
A|-3--------3---3--------3----------------3--------3-------------------3-|
E|-----------------------------------------------------------------------|
Добавлено: 22.06.2013
Другие материалы по этой песне:
  • Аккорды и текст

Страница создана 19.06.2012
http://primanota.ru/styx/man-of-miracles-chords.htm
Привет, Гость.
Предлагаем пройти революционный курс по гитаре.
Подарок от PrimaNota.Ru, забирай!