PrimaNota.ru - самый крупный в мире бесплатный архив песенных текстов, аккордов, табулатур и нот


Styx - Man In The Wilderness - текст песни, таба, бас-таба, видео

Регистрация Запомнить меня
Войти через:  Facebook Google Twitter Vk Yandex Mail.ru

Styx - Man In The Wilderness - текст песни, таба, бас-таба, видео

Печатать
Просмотров: 920
Авторы музыки: Tommy Shaw
Авторы текста: Tommy Shaw
Yo guys, I'm Rob.

Artist: Styx
Album: The Grand Illusion
Song: Man in the Wilderness
Year: 1977
Tuning: Standard

INTRO:

e-----------------------------------------------------------|
B-----------------------------------------------------------|
G-----------------------------------------------------------|
D------------4--7--5-----------7b8r7--5--5h7--5-------------|
A-----7---7-----------5s7--7---------------------7----------|
E-----------------------------------------------------------|


e----------------------------------------------------------|
B----------------------------------------------------------|
G----------------------4----5--4---------------------------|
D-------4--7--5--------------------7--5--4--5--7-----------|
A----7------------5s7-----------------------------5--7-----|
E----------------------------------------------------------|


e-----------------------------------------------------------|
B-----------------------------------------------------------|
G---------------------------------------------------------4-|
D------4--7--5----------------------------4--7--5-----------|
A---7----------5--5s7--7s5-----5--5h7--7-------------5s7----|
E----------------------------8------------------------------|



The VERSE is revolved around the following chords in this order:

Em, D, Am, Em

Em, D, Am, Bm

Tommy simply arpeggiates them.


CHORUS:

e----------------------------------0----------2-----------|
B--------------------------------1----------3-------------|
G---9------7----------5--------2----------4---------------|
D---9------7----------5-----------------------------------|
A---7------5----------3--3-2-0----------2-----------------|
E-----------------------------------------------0---------|


Once Tommy says "Drifting with the tide" you start this
progression

e-------------------------0-----0------------------------|
B-------------------------1---1--1-1---------------------|
G---9------7----------5-4-2----2--2-2---4---5------7-----|
D---9------7----------5-4-2--2--2-------4---5------7-----|
A---7------5----------3-2-0-0--------0--2---3------5-----|
E--------------------------------------------------------|


INTRO

VERSE

CHORUS

INTERLUDE:

e-----------------------------------------|
B-----------------------------------------|
G---4---7---9----7---5----4---7----9------|
D---4---7---9----7---5----4---7----9------|
A---2---5---7----5---3----2---5----7------|
E-----------------------------------------|


RHYTHM for solo:

e---------------------------------------------------------|
B---------------------------------------------------------|
G-----------------------5--5--7---------------------------|
D-----------------------5--5--7----------------------5--7-|
A----7--5--7--5--7------3--3--5---7--5--7--5--7------5--7-|
E-------------------0----------------------------0---3--5-|


e---------------14-15-17---------------14-15-----------------|
B----17-----17------------15----15-17--------13----17--17-19-|
G------------------------------------------------------------|
D------------------------------------------------------------|
A------------------------------------------------------------|
E------------------------------------------------------------|


CHORUS

INTRO to fade

Hope this helps.
Добавлено: 30.11.2013
Другие материалы по этой песне:

Страница создана 28.02.2012
http://primanota.ru/styx/man-in-the-wilderness-chords.htm
Привет, Гость.
Предлагаем пройти революционный курс по гитаре.
Подарок от PrimaNota.Ru, забирай!