PrimaNota.ru - самый крупный в мире бесплатный архив песенных текстов, аккордов, табулатур и нот


Styx - Never Say Never - текст песни, бас-таба, видео

Регистрация Запомнить меня
Войти через:  Facebook Google Twitter Vk Yandex Mail.ru

Styx - Never Say Never - текст песни, бас-таба, видео

Печатать
Просмотров: 93
Styx Never Say Never

standard tuning

:00
G|------------------------------------------------------------|
D|------------------------------------------------------------|
A|------------------------------------------------------------|
E|-12/0-0-0-0-0-0-0-0--12/0-0-0-0-0-0-0-0--12/0-0-0-0-0-0-0-5-|

:14 
G|----------------------------------------------------------------------|
D|----------------------------------------------------------------------|
A|-7--7-7--7--7-7--7---------------2--7--7-7--7--7-7--7---------------2-|
E|------------------0--0-0--0----5---------------------0--0-0--0----5---|

:28
G|------------------------------------------------------------------|
D|------------------------------------------------------------------|
A|-7--7-7--7--7-7--7--7-7--0--0-2--2-7--7-7--7--7-7-------------2-2-|
E|---------------------------------------------------9-9-9-9--5-----|

:43
G|------------------------------------------------------------------------|
D|------------------------------------------------------------------------|
A|-2-7--7-7--7--7-7--7----------------2-7--7-7--7--7-7--7---------------2-|
E|--------------------0--0-0--0-00--5--------------------0--0-0--0----5---|

:58
G|------------------------------------------------------------------|
D|------------------------------------------------------------------|
A|-7--7-7--7--7-7--7--7-7--0--0-2--2-7--7-7--7--7-7-------------2-2-|
E|---------------------------------------------------9-9-9-9--5-----|

1:13
G|------------------------------------------------------------------------|
D|------------------------------------------------------------------------|
A|-2-7--7-7--7--7-7--7----------------2-7--7-7--7--7-7--7---------------2-|
E|--------------------0--0-0--0-00--5--------------------0--0-0--0----5---|

1:28
G|----------------------------------------------------------------|
D|----7------7------7------7--------------------------------------|
A|-0-----00-----00-----00-----0-7--7-7--7--7-7--7---------------2-|
E|-----------------------------------------------0--0-0--0----5---|

1:42
G|------------------------------------|
D|------------------------------------|
A|-7--7-7--7--7-7--7----------------2-|
E|------------------0--0-0--0-00--5---|

1:49
G|-------------------------------------------------------------|
D|----7-7------7------7-7------7-----7-7-----7------7-7------7-|
A|-0-------00-----00-------00-----0-------0-----00-------00----|
E|-------------------------------------------------------------|

2:04
G|-----------------------------------------------------------------------|
D|----7-7------7-7------7-7-----7-7--------------------------------------|
A|-0-------00-------00-------0-------0-7--7-7--7--7-7--7---------------2-|
E|------------------------------------------------------0--0-0--0-0--5---|

2:18 
G|------------------------------------|
D|------------------------------------|
A|-7--7-7--7--7-7--7----------------2-|
E|------------------0--0-0--0-00--5---|

2:25 x2
G|-----------------------------------|
D|-----------------------------------|
A|-7--7-7--7--7-7--7---------------2-|
E|------------------0--0-0--0----5---|

2:40
G|-------------------------------------------------|
D|-------------------------------------------------|
A|-------------------------------------------------|
E|-0-0-0-0-0-0-0-0--0-0-0-0-0-0-0-0--0-0-0-0-0-0-0-|

2:50
G|--------------------------------------|
D|--------------------------------------|
A|-0--2--4--7--9~--7--------------------| ~ = bend
E|--------------------0--0000--0-0--0-0-|
Добавлено: 22.08.2013
Другие материалы по этой песне:
  • Аккорды и текст

Страница создана 07.05.2012
http://primanota.ru/styx/never-say-never-chords.htm
Привет, Гость.
Предлагаем пройти революционный курс по гитаре.
Подарок от PrimaNota.Ru, забирай!