PrimaNota.ru - самый крупный в мире бесплатный архив песенных текстов, аккордов, табулатур и нот


Styx - Right Away - текст песни, бас-таба, видео

Регистрация Запомнить меня
Войти через:  Facebook Google Twitter Vk Yandex Mail.ru

Styx - Right Away - текст песни, бас-таба, видео

Печатать
Просмотров: 50
Авторы музыки: Paul Frank

Intro
  Q=136
 4/4
  Gtr I
  Wx4          W          +W           +W           +W
|------------|----------|------------|------------|--------||
|------------|-0--------|-(0)--------|-(0)--------|-(0)----||
|------------|----------|------------|------------|--------||
|------------|----------|------------|------------|--------||

   Verse
    $
    Q.   E E E E E   Q.   E E E E E   Q.   E E E E E   H    E E E E   4x
||-----------------|----------------|----------------|----------------||
||o----------------|----------------|----------------|---------------o||
||o-5------5---5---|-3------3---3---|-2------2---2---|--------2---3--o||
||-------5---5-----|------3---3-----|------2---2-----|-3----3---------||

 Chorus
  Q.   E E E E E   S S S S Q  E E E E   Q.   E Q.   E   Q.   E E E +Q
|----------------|---7-----7----------|---------------|-----------------|
|--------4-5-6-7-|--------------------|---------------|-----------------|
|-5----5---------|-5-----5----------4-|-0----0-0----0-|-0----0-0-2-(2)--|
|----------------|------------6-7-8---|---------------|-----------------|

  Q.   E E E E E   E E E E E E E E   Q.   E Q.   E   Q.   E E E +E  E
|----------------|-----------------|---------------|------------------|
|--------2-3-4-5-|-----------------|---------------|------------------|
|-3----3---------|-3---3-----0-1-2-|---------------|----------2-(2)-3-|
|----------------|---3---3-4-------|-3----3-3----3-|-3----3-3---------|

  Q.   E E E E E   E E E E E E E E   Q.   E Q.   E   Q.   E E E +Q
|----------------|-----------------|---------------|-----------------|
|--------4-5-6-7-|-----------------|---------------|-----------------|
|-5----5---------|-5---5---------4-|-0----0-0----0-|-0----0-0-2-(2)--|
|----------------|---5---5-6-7-8---|---------------|-----------------|

                                                                D.S.
  Q.   E E E E E   E E E E E E E E   Q.   E Q.   E   Q.   E E E +E  E
|----------------|-----------------|---------------|------------------||
|--------2-3-4-5-|-----------------|---------------|------------------||
|-3----3---------|-3---3-----0-1-2-|---------------|----------2-(2)-3-||
|----------------|---3---3-4-------|-3----3-3----3-|-3----3-3---------||

   Guitar Solo
    Q.   E E E E E   E E E E E E E E   Q.   E Q.   E   Q.   E E E +Q
||-----------------|-----------------|---------------|------------------|
||o--------4-5-6-7-|-----------------|---------------|------------------|
||o-5----5---------|-5---5---------4-|-0----0-0----0-|-0----0-0-2-(2)---|
||-----------------|---5---5-6-7-8---|---------------|------------------|

                                    1.
  Q.   E E E E E   E E E E E E E E   Q.   E Q.   E   Q.   E E E +E  E
|----------------|-----------------|---------------|-------------------||
|--------2-3-4-5-|-----------------|---------------|------------------o||
|-3----3---------|-3---3-----0-1-2-|---------------|----------2-(2)-3-o||
|----------------|---3---3-4-------|-3----3-3----3-|-3----3-3----------||

  2.
                  |-3-| |-3-|
  Q.   E Q.   E   Q Q Q Q Q Q
|---------------|-------------||
|---------------|-------------||
|---------------|-------2-3-4-||
|-3----3-3----3-|-3-2-3-------||

 Out-Chorus / Solo
  Q.   E E E E E   E E E E E E E E   Q.   E Q.   E   Q.   E E E +Q
|----------------|-----------------|---------------|-----------------|
|--------4-5-6-7-|-----------------|---------------|-----------------|
|-5----5---------|-5---5---------4-|-0----0-0----0-|-0----0-0-2-(2)--|
|----------------|---5---5-6-7-8---|---------------|-----------------|

  Q.   E E E E E   E E E E E E E E   Q.   E Q.   E   Q.   E E E +E  E
|----------------|-----------------|---------------|------------------|
|--------2-3-4-5-|-----------------|---------------|------------------|
|-3----3---------|-3---3-----0-1-2-|---------------|----------2-(2)-3-|
|----------------|---3---3-4-------|-3----3-3----3-|-3----3-3---------|

  Q.   E E E E E   E E E E E E E E   Q.   E H      E E Q  H
|----------------|---7---7---------|-------------|-------------|
|--------4-5-6-7-|-----------------|-------------|-------------|
|-5----5---------|-5---5---------4-|-0----0-0----|-0-----------|
|----------------|---------6-7-8---|-------------|-------------|

  Q.   E E E E E   E E E E E E E E   Q.   E Q.   E   Q.   E E E +E  E
|----------------|-----------------|---------------|------------------|
|--------2-3-4-5-|-----------------|---------------|------------------|
|-3----3---------|-3---3-----0-1-2-|---------------|----------2-(2)-3-|
|----------------|---3---3-4-------|-3----3-3----3-|-3----3-3---------|

  Q.   E E E E E   E E E E E E E E   Q.   E Q.   E   Q.   E E E +Q
|----------------|-----------------|---------------|-----------------|
|--------4-5-6-7-|-----------------|---------------|-----------------|
|-5----5---------|-5---5---------4-|-0----0-0----0-|-0----0-0-2-(2)--|
|----------------|---5---5-6-7-8---|---------------|-----------------|

  Q.   E E E E E   E E E E E E E E   Q.   E Q.   E   Q.   E E E +E  E
|----------------|---5---5---------|---------------|------------------|
|--------2-3-4-5-|-----------------|---------------|------------------|
|-3----3---------|-3---3-----0-1-2-|---------------|----------2-(2)-3-|
|----------------|---------4-------|-3----3-3----3-|-3----3-3---------|

  E E E E E E E E   E E E E E E E E   Q.   E Q.   E   Q.   E E E +Q
|---7---7---------|---7---7---------|---------------|-----------------|
|---------4-5-6-7-|-----------------|---------------|-----------------|
|-5---5-----------|-5---5---------4-|-0----0-0----0-|-0----0-0-2-(2)--|
|-----------------|---------6-7-8---|---------------|-----------------|

  Q.   E E E E E   E E E E E E E E   Q.   E Q.   E   Q.   E E E +E  E
|----------------|-----------------|---------------|------------------*|
|--------2-3-4-5-|-----------------|---------------|------------------*|
|-3----3---------|-3---3-----0-1-2-|---------------|----------2-(2)-3-*|
|----------------|---3---3-4-------|-3----3-3----3-|-3----3-3---------*|
Добавлено: 04.10.2015
Другие материалы по этой песне:
  • Аккорды и текст

Страница создана 16.03.2012
http://primanota.ru/styx/right-away-chords.htm
Привет, Гость.
Предлагаем пройти революционный курс по гитаре.
Подарок от PrimaNota.Ru, забирай!