PrimaNota.ru - самый крупный в мире бесплатный архив песенных текстов, аккордов, табулатур и нот


Styx - Prelude 12 - таба, видео

Регистрация Запомнить меня
Войти через:  Facebook Google Twitter Vk Yandex Mail.ru

Styx - Prelude 12 - таба, видео

Печатать
Просмотров: 100
Авторы музыки: John Curulewski

Intro:

e||--------<7>------------------------|--------<7>-----<12>----------------|
B||-------------<7>-------------------|--------------------<7>-------------|
G||-----------<7>--<7>----------------|------------<7>---------------------|
D||-----------------------------------|------------------------------------|
A||-----------------------------------|------------------------------------|
E||-<7>-------------------------------|-<7>--------------------------------|

1st part: 2x

e||-2-------2p0-----5-----------------|-2-------2p0-----0------------------|
B||-0-----------3---3-----------------|-0-----------3---2------------------|
G||o0---------------2-----------------|-0---------------0------------------|
D||o0---------------0-----------------|-0---------------2------------------|
A||-2---------------------------------|-2---------------0------------------|
E||-3---------------------------------|-3----------------------------------|

e||---------0-----|-------0---------|
B||-------3-------|---------3-------|
G||-----0---------|-----0-----------|
D||---4-----------|---4-------------|
A||-2-------------|-2---------------|
E||---------------|-----------------|

2nd part:
                                     rallentendo...
e||---------0---------------0---------|---------0---------------0----------|
B||-----0-------0-------0-------0-----|-----0-------0-------0-------0------|
G||---2---2---2---2---2---2---2---2---|---2---2---2---2---2---2---2---2----|
D||-2---------------3-----------------|-4---------------3------------------|
A||-0---------------0-----------------|-0---------------0------------------|
E||-----------------------------------|------------------------------------|

e||-------<12>--<7>------|-----<7>---<5>------|
B||-------<12>--<7>------|-----<7>---<5>------|
G||-------<12>--<7>------|-----<7>---<5>------|
D||-------<12>--<7>------|-----<7>---<5>------|
A||-------<12>--<7>------|-----<7>---<5>------|
E||-<12>--<12>--<7>------|<12>-<7>---<5>------|

Outro:

e||-----------0-----3p0---------------|-------0h2-----2--2-----------------|
B||-------0h1---1-------1-------------|-----3-----3------3-----------------|
G||-----2---------0-------0-----------|---2---------2----2-----------------|
D||---2---------------------------2---|-0----------------0-----------------|
A||-0-----------------------0-2-3-----|------------------------------------|
E||-----------------------------------|------------------------------------|

e||-2---------------|-2---------------|
B||-2---------------|-2---------------|
G|4-4---------------|-3---------------|
D|4-4---------------|-4---------------|
A||-4---------------|-4---------------|
E||-2---------------|-2---------------|
Добавлено: 08.03.2012
Другие материалы по этой песне:

Страница создана 08.03.2012
http://primanota.ru/styx/prelude-12-chords.htm
Привет, Гость.
Предлагаем пройти революционный курс по гитаре.
Подарок от PrimaNota.Ru, забирай!