PrimaNota.ru - самый крупный в мире бесплатный архив песенных текстов, аккордов, табулатур и нот


Styx - Quick Is The Beat Of My Heart - текст песни, бас-таба, видео

Регистрация Запомнить меня
Войти через:  Facebook Google Twitter Vk Yandex Mail.ru

Styx - Quick Is The Beat Of My Heart - текст песни, бас-таба, видео

Печатать
Просмотров: 85
Уроки эстрадного вокала в Санкт-Петербурге
Авторы музыки: Lewis Mark

Intro
 4/4
  Gtr I
  Wx4
|--------|
|--------|
|--------|
|--------|

 Pre-Verse
  S S +E  +H.        S S S S Q  H      S S +E  +H.        S S S S Q  H
|------------------|-----------------|------------------|-----------------||
|-0h2-(2)-(2)------|-2h5p2-----------|-0h2-(2)-(2)------|-2h5p2-----------||
|------------------|-----------------|------------------|-----------------||
|------------------|-----------------|------------------|-----------------||

   Verse
    S S +E  +H.        S S S S Q  H     3x
||-------------------|------------------||
||o-0h2-(2)-(2)------|-2h5p2-----------o||
||o------------------|-----------------o||
||-------------------|------------------||

  Q.   E +H       S S +E  +H.        S S S S Q  H
|-2----0-(0)----|------------------|-----------------||
|---------------|-0h2-(2)-(2)------|-2h5p2-----------||
|---------------|------------------|-----------------||
|---------------|------------------|-----------------||

    S S +E  +H.        S S S S Q  H     3x
||-------------------|------------------||-|
||o-0h2-(2)-(2)------|-2h5p2-----------o||-|
||o------------------|-----------------o||-|
||-------------------|------------------||-|

    Q.   E +H       S S +E  +H.          S S S S Q  H
||--2----0-(0)----|-------------------||-----------------||
||o---------------|-0h2-(2)-(2)------o||-2h5p2-----------||
||o---------------|------------------o||-----------------||
||----------------|-------------------||-----------------||

 Bridge
  E E E E E E E E   E E E E E E E E   S S +E  +H.        S S S S Q  H
|-----------------|-2---2-----------|------------------|-----------------|
|-2---2---2---2---|---2---2-0---0---|-0h2-(2)-(2)------|-2h5p2-----------|
|---2---2---2---2-|-----------2---2-|------------------|-----------------|
|-----------------|-----------------|------------------|-----------------|

  E E E E E E E E   E E E E E E E E   S S +E  +H.        S S S S Q  H
|-----------------|-2---2-0-----0---|------------------|-----------------|
|-2---2---2---2---|---2-----0-2---0-|-0h2-(2)-(2)------|-2h5p2-----------|
|---2---2---2---2-|-----------------|------------------|-----------------|
|-----------------|-----------------|------------------|-----------------|

  E E E E E E E E   E E E E E E E E   S S +E  +H.        S S S S Q  H
|-----------------|-2---2-----------|------------------|-----------------||
|-2---2---2---2---|---2---2-0---0---|-0h2-(2)-(2)------|-2h5p2-----------||
|---2---2---2---2-|-----------2---2-|------------------|-----------------||
|-----------------|-----------------|------------------|-----------------||

 Chorus
   W          Q.   E +H       a  W           Q.   E +H
|-----------|---------------|--------------|---------------||
|-----------|---------------|--------------|---------------||
|-/7--------|-5----0-(0)----|-5h=7---------|-5----0-(0)----||
|-----------|---------------|-0-(0)--------|---------------||

 Interlude / Keyboard Solo
  W          W          W
|----------|----------|----------|
|----------|-2--------|-2--------|
|----------|-2--------|-2--------|
|----------|-0--------|-0--------|

    S E S E S E S E S S E       S E S E S S S E Q      S  7x
||----------------------------|---------------------------||
||o---2---0---2---0-----------|---2---0---2p0------------o||
||o-----------------2p0-------|---------------2----------o||
||--0---0---0---0-------3b3.5-|-0---0---0-------3b3.5-----||

   Guitar Solo
    S E S E S E S E S S E       S E S E S S S E Q      S
||----2---0---2---0-----------|---2---0---2p0-------------||-|
||o-----------------2p0-------|---------------2----------o||-|
||o-0---0---0---0-------3b3.5-|-0---0---0-------3b3.5----o||-|
||----------------------------|---------------------------||-|

    S E S E S E S E S S E       S E S E S S S E Q      S
||----4---2---4---2-----------|---4---2---4p2---------------||
||o-----------------4p2-------|---------------4------------o||
||o-2---2---2---2-------5b5.5-|-2---2---2-------5b5.5------o||
||----------------------------|-----------------------------||

 Pre-Verse
  Wx2          S S +E  +H.        S S S S Q  H
|------------|------------------|-----------------||
|------------|-0h2-(2)-(2)------|-2h5p2-----------||
|------------|------------------|-----------------||
|------------|------------------|-----------------||

   Verse                                      Chorus
    S S +E  +H.        S S S S Q  H     3x     Q.   E +H       a  W      3x
||-------------------|------------------||-||----------------|-----------||
||o-0h2-(2)-(2)------|-2h5p2-----------o||-||o---------------|----------o||
||o------------------|-----------------o||-||o-5----0-(0)----|-5h=7-----o||
||-------------------|------------------||-||----------------|-0-(0)-----||

 Breakdown
  Wx6
|--------||
|--------||
|--------||
|--------||

   Outro
    S S +E  +H.        S S S S Q  H        S S +E  +H.        Wx6
||-------------------|------------------||------------------|--------*|
||o-0h2-(2)-(2)------|-2h5p2-----------o||-0h2-(2)-(2)------|--------*|
||o------------------|-----------------o||------------------|--------*|
||-------------------|------------------||------------------|--------*|
Добавлено: 04.10.2015
Другие материалы по этой песне:
  • Аккорды и текст

Страница создана 02.03.2012
http://primanota.ru/styx/quick-is-the-beat-of-my-heart-chords.htm
Привет, Гость.
Предлагаем пройти революционный курс по гитаре.
Подарок от PrimaNota.Ru, забирай!