PrimaNota.ru - самый крупный в мире бесплатный архив песенных текстов, аккордов, табулатур и нот


Styx - Midnight Ride - текст песни, бас-таба, видео

Регистрация Запомнить меня
Войти через:  Facebook Google Twitter Vk Yandex Mail.ru

Styx - Midnight Ride - текст песни, бас-таба, видео

Печатать
Просмотров: 91
Уроки эстрадного вокала в Санкт-Петербурге
Авторы музыки: James Young

Styx Midnight Ride

standard tuning

:00 x7
G|----------------------|
D|----------------------|
A|----------------------|
E|-5-5555-03-5-55-3--03-|

:25
G|------------------------------------------------------|
D|---------------------------------------------0-3-2-0--|
A|-3-55-5--0-3-5-55--3-2-0--3-55-5--0-3-5--0-3----------|
E|------------------------------------------------------|

:32 x2
G|----------------------|
D|----------------------|
A|----------------------|
E|-5-5555-03-5-55-3--03-|

:38
G|------------------------------------------------------|
D|----------------------------------------------0-3-2-0-|
A|-3-3-55-5--0-3-5-55--3-2-0--3-55-5--0-3-5--0-3--------|
E|------------------------------------------------------

:45 x2
G|----------------------|
D|----------------------|
A|----------------------|
E|-5-5555-03-5-55-3--03-|

:51
G|----------------------------------------------------------|
D|-------------0-2-------------------------------0-2--------|
A|-77-7--7-5-3------55-5--5-3-2-0----77-7--7-5-3------0-3-5-|
E|--------------------------------3-------------------------|


1:05 x4
G|----------------------|
D|----------------------|
A|----------------------|
E|-5-5555-03-5-55-3--03-|


1:18
G|------------------------------------------------------|
D|----------------------------------------------0-3-2-0-|
A|-3-3-55-5--0-3-5-55--3-2-0--3-55-5--0-3-5--0-3--------|
E|------------------------------------------------------|

1:24 x2
G|----------------------|
D|----------------------|
A|----------------------|
E|-5-5555-03-5-55-3--03-|

1:31
G|------------------------------------------------------|
D|----------------------------------------------0-3-2-0-|
A|-3-3-55-5--0-3-5-55--3-2-0--3-55-5--0-3-5--0-3--------|
E|------------------------------------------------------|

1:37 x2
G|----------------------|
D|----------------------|
A|----------------------|
E|-5-5555-03-5-55-3--03-|

1:44
G|----------------------------------------------------------|
D|-------------0-2-------------------------------0-2--------|
A|-77-7--7-5-3------55-5--5-3-2-0----77-7--7-5-3------0-3-5-|
E|--------------------------------3-------------------------|

2:00
G|----------------------------------------------|
D|----------------------3---3--3----------------|
A|-------------------------3-----3-4-5--5-3-2---|
E|-5--5-0-3-4-55--5-0-3-----------------------5-|

2:07
G|----------------------------------------|
D|----------------3---3--3-3--------------|
A|-------3--3-0-3----3-------3-5--5-3-2---|
E|-5-0-3--------------------------------5-|

2:14
G|----------------------------------------------------------------------|
D|----------------3--3--------------------------------33333333----------|
A|-------3--3-0-3------3-4-5--5-3-2----------3--3-0-3----------55555555-|
E|-5-0-3----------------------------5--5-0-3----------------------------|

2:26 x4
G|----------------------|
D|----------------------|
A|----------------------|
E|-5-5555-03-5-55-3--03-|

2:39
G|------------------------------------------------------|
D|----------------------------------------------0-3-2-0-|
A|-3-3-55-5--0-3-5-55--3-2-0--3-55-5--0-3-5--0-3--------|
E|------------------------------------------------------|

2:46 x2
G|----------------------|
D|----------------------|
A|----------------------|
E|-5-5555-03-5-55-3--03-|

2:51
G|------------------------------------------------------|
D|----------------------------------------------0-3-2-0-|
A|-3-3-55-5--0-3-5-55--3-2-0--3-55-5--0-3-5--0-3--------|
E|------------------------------------------------------|

2:58 x2
G|----------------------|
D|----------------------|
A|----------------------|
E|-5-5555-03-5-55-3--03-|

3:05
G|----------------------------------------------------------|
D|-------------0-2-------------------------------0-2--------|
A|-77-7--7-5-3------55-5--5-3-2-0----77-7--7-5-3------0-3-5-|
E|--------------------------------3-------------------------|

3:19 repeat until end
G|----------------------|
D|----------------------|
A|----------------------|
E|-5-5555-03-5-55-3--03-|
Добавлено: 24.11.2013
Другие материалы по этой песне:
  • Аккорды и текст

Страница создана 22.05.2012
http://primanota.ru/styx/midnight-ride-chords.htm
Привет, Гость.
Предлагаем пройти революционный курс по гитаре.
Подарок от PrimaNota.Ru, забирай!