PrimaNota.ru - самый крупный в мире бесплатный архив песенных текстов, аккордов, табулатур и нот


Slaves - White Knuckle Ride - таба, видео

Регистрация Запомнить меня
Войти через:  Facebook Google Twitter Vk Yandex Mail.ru

Slaves - White Knuckle Ride - таба, видео

Печатать
Просмотров: 192
-------------------------------------------------------------------------------
                             WHITE KNUCKLE RIDE - Slaves
-------------------------------------------------------------------------------
Tabbed by:  Shaun
E-mail: shaunus123@hotmail.com

Tuning: Standard

Main Riff (Intro and Verse Riff):

  PM----------------------------------------------------------  --------------------
e|----------------------------------------------------------------------------------|         
B|----------------------------------------------------------------------------------|         
G|-----------------------------------------------------------7-7--------------------|
D|-----------------------------------------------------------7-7---4-4-4-4/5-5-5-5/-|         
A|-11-11-11-11-11-11-11-11-11-11-11-11-11-11-11-11-11-\7-7-7-5-5---2-2-2-2/3-3-3-3/-|
E|-9--9--9--9--9--9--9--9--9--9--9--9--9--9--9--9--9--\5-5-5-----5------------------|

                                                   Repeat as many times as needed 
                                                   Muting varies throughout,but is easy to grasp

Chorus:
                                                 x2                .1             .2  
e|-------------------------------------------------|-----------------|--------------|
B|-------------------------------------------------|-----------------|--------------|
G|--------------9/11--------------------------9/11-|-----------------|--------------|    
D|-----------------------------9/11----------------|------------9/11-|--------------|
A|------------7--------------7--------------7------|----------7------|----------7-7-|
E|---9-9-9-9-9------5-5-5-5-5------9-9-9-9-9-------|-5-5-5-5-5-------|-5-5-5-5-5----|

Repeat Main Riff/Verse
Repeat Chorus

Bridge:

e|-----------------------------------|
B|-----------------------------------|
G|---------------------------5-5-5-5-|
D|---------------------------5-5-5-5-|  x16
A|---9-9-9-9-9-9-9-9-7-7-7-7-3-3-3-3-|
E|---7-7-7-7-7-7-7-7-5-5-5-5---------|

END

************************************

| /   slide up
| \   slide down
| h   hammer-on
| p   pull-off
| ~   vibrato
| +   harmonic
| x   Mute note
| b   Bend
| pb  Pre-bend
| br  Bend release
| pbr Pre-bend release
| brb Bend release bend

************************************
Добавлено: 25.07.2015
Другие материалы по этой песне:
  • Аккорды и текст

Страница создана 25.07.2015
http://primanota.ru/slaves/white-knuckle-ride-chords.htm
Привет, Гость.
Предлагаем пройти революционный курс по гитаре.
Подарок от PrimaNota.Ru, забирай!