PrimaNota.ru - самый крупный в мире бесплатный архив песенных текстов, аккордов, табулатур и нот


Slaves - Wheres Your Car Debbie - аккорды и текст, таба, видео

Регистрация Запомнить меня
Войти через:  Facebook Google Twitter Vk Yandex Mail.ru

Slaves - Wheres Your Car Debbie - аккорды и текст, таба, видео

Печатать
Просмотров: 258
Wheres Your Car Debbie
Slaves
-------------------------------------------------------------------------------
                     Where's Your Car Debbie? - SLAVES
-------------------------------------------------------------------------------
Tabbed by: yernbarr
E-mail: ewanbarr@hotmail.co.uk

Tuning: EDAGBE

intro and first verse
e|-4--3--3--4-x-x-x-x-x-x-x-x-x-x--4--3--3--4-x-x-x-x-x-x-x-x-x-x------------|
B|-4--3--3--4-x-x-x-x-x-x-x-x-x-x--5--4--4--5-x-x-x-x-x-x-x-x-x-x------------|
G|-5--4--4--5-x-x-x-x-x-x-x-x-x-x--6--5--5--6-x-x-x-x-x-x-x-x-x-x------------|
D|-6--5--5--6-x-x-x-x-x-x-x-x-x-x--6--5--5--6-x-x-x-x-x-x-x-x-x-x------------|
A|-6--5--5--6-x-x-x-x-x-x-x-x-x-x--4--3--3--4-x-x-x-x-x-x-x-x-x-x------------|
E|-4--3--3--4-x-x-x-x-x-x-x-x-x-x--4--3--3--4-x-x-x-x-x-x-x-x-x-x------------|

chorus
e|-4--3--3--4--7--7--7--6--6--6--6---4--3--3--4--7--7--7--9--9--9--10--10----|
B|-4--3--3--4--7--7--7--6--6--6--6---4--3--3--4--7--7--7--9--9--9--10--10----|
G|-5--4--4--5--8--8--8--7--7--7--7---5--4--4--5--8--8--8--10-10-10-11--11----|
D|-6--5--5--6--9--9--9--8--8--8--8---6--5--5--6--9--9--9--11-11-11-12--12----|
A|-6--5--5--6--9--9--9--8--8--8--8---6--5--5--6--9--9--9--11-11-11-12--12----|
E|-4--3--3--4--7--7--7--6--6--6--6---4--3--3--4--7--7--7--9--9--9--10--10----|

e|---------------------------------------------------------------------------|
B|---------------------------------------------------------------------------|
G|---------------------------------------------------------------------------|
D|---------------------------------------------------------------------------|
A|-6--5--5--6--9--9--9--8--8--8--8---6--5--5--6------------------------------|
E|-4--3--3--4--7--7--7--6--6--6--6---4--3--3--4------------------------------|

verse (this one has a break in the middle)
e|-4--3--3--4-x-x-x-x-x-x-x-x-x-x--4--3--3--4-x-x-x-x-x-x-x-x-x-x------------|
B|-4--3--3--4-x-x-x-x-x-x-x-x-x-x--5--4--4--5-x-x-x-x-x-x-x-x-x-x------------|
G|-5--4--4--5-x-x-x-x-x-x-x-x-x-x--6--5--5--6-x-x-x-x-x-x-x-x-x-x------------|
D|-6--5--5--6-x-x-x-x-x-x-x-x-x-x--6--5--5--6-x-x-x-x-x-x-x-x-x-x------------|
A|-6--5--5--6-x-x-x-x-x-x-x-x-x-x--4--3--3--4-x-x-x-x-x-x-x-x-x-x------------|
E|-4--3--3--4-x-x-x-x-x-x-x-x-x-x--4--3--3--4-x-x-x-x-x-x-x-x-x-x------------|

chorus
e|-4--3--3--4--7--7--7--6--6--6--6---4--3--3--4--7--7--7--9--9--9--10--10----|
B|-4--3--3--4--7--7--7--6--6--6--6---4--3--3--4--7--7--7--9--9--9--10--10----|
G|-5--4--4--5--8--8--8--7--7--7--7---5--4--4--5--8--8--8--10-10-10-11--11----|
D|-6--5--5--6--9--9--9--8--8--8--8---6--5--5--6--9--9--9--11-11-11-12--12----|
A|-6--5--5--6--9--9--9--8--8--8--8---6--5--5--6--9--9--9--11-11-11-12--12----|
E|-4--3--3--4--7--7--7--6--6--6--6---4--3--3--4--7--7--7--9--9--9--10--10----|

e|---------------------------------------------------------------------------|
B|---------------------------------------------------------------------------|
G|---------------------------------------------------------------------------|
D|---------------------------------------------------------------------------|
A|-6--5--5--6--9--9--9--8--8--8--8---6--5--5--6------------------------------|
E|-4--3--3--4--7--7--7--6--6--6--6---4--3--3--4------------------------------|

Bridge
e|----------------------------------------------------------------|
B|----------------------------------------------------------------|
G|----------------------------------------------------------------|
D|----------------------------------------------------------------|
A|----------------x-x-x-x-x-x-x-x-----------------x-x-x-x-x-x-x-x-|
E|-0-3-3-4-3-6-3--x-x-x-x-x-x-x-x--0-3-3-4-3-6-3--x-x-x-x-x-x-x-x-|

                                                   where's you car Debbie?
e|---------------------------------------------------------------------------|
B|---------------------------------------------------------------------------|
G|---------------------------------------------------------------------------|
D|--------------------------------------------------------------------------0|
A|----------------x-x-x-x-x-x-x-x-------------------------------------------0|
E|-0-3-3-4-3-6-3--x-x-x-x-x-x-x-x--0-3-3-4-3-6-3----------------------------0|

kind of solo
e|---------------------------------------------------------------------------|
B|---------------------------------------------------------------------------|
G|---------------------------------------------------------------------------|
D|---------------------------------------------------------------------------|
A|-6--5--5--6-10-10-10-10-10-10-10-10--4--3--3--4-14-14-14-14-14-14-14-14----|
E|-4--3--3--4-8--8--8--8--8--8--8--8---4--3--3--4-12-12-12-12-12-12-12-12----|

e|---------------------------------------------------------------------------|
B|---------------------------------------------------------------------------|
G|---------------------------------------------------------------------------|
D|---------------------------------------------------------------------------|
A|-6--5--5--6-16-16-16-16-16-16-16-16--4--3--3--4-12-12-12-12-12-12-12-12----|
E|-4--3--3--4-14-14-14-14-14-14-14-14--4--3--3--4-10-10-10-10-10-10-10-10----|

e|---------------------------------------------------------------------------|
B|---------------------------------------------------------------------------|
G|---------------------------------------------------------------------------|
D|---------------------------------------------------------------------------|
A|-6--5--5--6----------------6--5--5--6--------------------------------------|
E|-4--3--3--4-/12b-0-/12b-0--4--3--3--4--/10b-0-/10b-0-----------------------|

e|---------------------------------------------------------------------------|
B|---------------------------------------------------------------------------|
G|---------------------------------------------------------------------------|
D|---------------------------------------------------------------------------|
A|-6--5--5--6----------------6--5--5--6--------------------------------------|
E|-4--3--3--4-/12b-0-/12b-0--4--3--3--4--/8b-0-/8b-0-------------------------|

outro
e|---------------------------------------------------------------------------|
B|---------------------------------------------------------------------------|
G|---------------------------------------------------------------------------|
D|---------------------------------------------------------------------------|
A|-6--5--5--6-x-x-x-x-x-x-x-x-x-x--4--3--3--4--------------------------------|
E|-4--3--3--4-x-x-x-x-x-x-x-x-x-x--4--3--3--4--------------------------------|
Добавлено: 30.10.2015
Другие материалы по этой песне:
  • Аккорды и текст

Страница создана 25.07.2015
http://primanota.ru/slaves/wheres-your-car-debbie-chords.htm
Привет, Гость.
Предлагаем пройти революционный курс по гитаре.
Подарок от PrimaNota.Ru, забирай!