PrimaNota.ru - самый крупный в мире бесплатный архив песенных текстов, аккордов, табулатур и нот


Slaves - Winter Everywhere - таба, видео

Регистрация Запомнить меня
Войти через:  Facebook Google Twitter Vk Yandex Mail.ru

Slaves - Winter Everywhere - таба, видео

Печатать
Просмотров: 154
Уроки эстрадного вокала в Санкт-Петербурге
Winter Everywhere - Slaves (Guitar TAB: Intro)


Video Lesson: https://www.youtube.com/watch?v=KuSBPDy66ds

**Standard Tuning/7th Fret Capo** (TAB below is assuming 7th Fret Capo)

Legend:
/ - Slide up to fret
X - Percussive Snap/Slap Strings
h - Hammer-on to next note
p - Pull-off to next note
(#) - #'s inside parentheses are optional notes


e|-----------------2/4-------------------------------------|
B|--2/4-----4p2p1--------2------------------------4--------|
G|--------------------------------3----3h4-----------------|
D|-------------------------------4---------------4---------|  
A|-(4/6)-X--------------(4)-X---2----2------X---2----X-----|
E|-------X------------------X--0----0-------X--0-----X-----|
                           


e|---------------------2/4--------|
B|--------2/4----4p2p1-----2------|
G|-----4--------------------------|
D|----4---------------------------| 
A|---2---(4/6)-X----------(4)---X-|
E|--0----------X----------------X-|



e|---------------------------|
B|---------------------------|
G|-----3----3h4-------4------|
D|----4--------------4-4-----|  
A|---2-----2----X---2--------|
E|--0-----0-----X--0---------|







Transcribed by Josh Keslar
Добавлено: 27.04.2016
Другие материалы по этой песне:
  • Аккорды и текст

Страница создана 27.04.2016
http://primanota.ru/slaves/winter-everywhere-chords.htm
Привет, Гость.
Предлагаем пройти революционный курс по гитаре.
Подарок от PrimaNota.Ru, забирай!