PrimaNota.ru - самый крупный в мире бесплатный архив песенных текстов, аккордов, табулатур и нот


Slaves - Feed The Mantaray - таба, видео

Регистрация Запомнить меня
Войти через:  Facebook Google Twitter Vk Yandex Mail.ru

Slaves - Feed The Mantaray - таба, видео

Печатать
Просмотров: 232
-------------------------------------------------------------------------------
                             Feed the Mantaray - Slaves
-------------------------------------------------------------------------------
Tabbed by: Jonah W (edited by Fletcher Legg)

Tuning: Standard: EADGBe

e|------------------|
B|------------------|
G|------------------|
D|------------------| x3
A|--4-4---7---10-9--|
E|--2-2---5---8--7--|

e|-------------------|
B|-------------------|
G|-------------------|
D|-------------------| x1
A|--x-12-11-x-15-14--| 
E|--x-10-9--x-13-12--|

Repeat through each verse.

e|-------------------------------------------------------------|
B|-------------------------------------------------------------|
G|-------------------------------------------------------------|
D|------------------------------------------7-777777s9-999999--|
A|--5-5-5-4-2-----------5-5-5-4-2-4-4444444-7-777777s9-999999--|
E|------------2-222222----------------------5-555555s7-777777--|

CHORUS ^^^ (then repeat verse)
Добавлено: 30.10.2015
Другие материалы по этой песне:
  • Аккорды и текст

Страница создана 30.10.2015
http://primanota.ru/slaves/feed-mantaray-chords.htm
Привет, Гость.
Предлагаем пройти революционный курс по гитаре.
Подарок от PrimaNota.Ru, забирай!