PrimaNota.ru - самый крупный в мире бесплатный архив песенных текстов, аккордов, табулатур и нот


Pino Daniele - Anna Verra' - таба, видео

Регистрация Запомнить меня
Войти через:  Facebook Google Twitter Vk Yandex Mail.ru

Pino Daniele - Anna Verra' - таба, видео

Печатать
Просмотров: 145
		   --------
Ehm..Nella trascrizione precedente avevo commesso un piccolo errore di
distrazione, e ringrazio Chris per avermelo fatto notare. Capita a
volte.  :-))
Spero di non averne commesso altri. :)


ANNA VERRA'  (Mascalzone Latino 1989)

(Tonalità Sol#m)


|--------------------------|-------------------------------------|
|--------4-4-4-4^5-4----4--|--------2-2-2-2^4-0------------------|
|------4-------------6-----|--1--3--------------3-3^4---1--3--3--|
|----6---------------------|--1----------------------------------|
|--6-----------------------|-------------------------------------|
|--------------------------|-------------------------------------|

|--------------------------|-------------------------------------|
|--------4-4-4-4^5-4----4--|--------2--2^4-2---------------------|
|------4-------------6-----|--1--3-------------------------------|
|----6---------------------|--1----------------------------------|
|--6-----------------------|-------------------------------------|
|--------------------------|-------------------------------------|


         Sol#m  Sol#m/F#
Anna verrà
E       Do#m7        E          Re#7  Sol#m(/Fa#)
  col suo modo di guardarci dentro
E      Do#m7         E      Re#7   Sol#m(9)
 dimmi quando questa guerra finirà
                     E  Mi7+    Do#m7   Re#7
 noi che abbiamo un mondo da cambiare
        Sol#m            E              Do#m7   La#m9  Re#7
noi che ci emozioniamo ancora davanti al mare
         La#m9
Anna verrà
           Re#7              Sol#m9
e sarà un giorno pieno di sole
         Sol#7         Do#m7
e allora, sì, ti cercherei
       Re#7            E
forse per sognare ancora
Re#m7
ancora
Do#m7
Anna, dimmi
      Re#7            Sol#m
se è così lontano il mare

Anna verrà
col suo modo di rubarci dentro
di sorridere per questa libertà
noi che abbiamo un mondo da cambiare
noi che guardiamo indietro
cercando di non sbagliare
Anna verrà
raccoglieremo i cani per strada
ci inventeremo qualche altra cosa
per non essere più soli
Anna, dimmi
se è così lontano il mare.

(liberamente)

|---------------7--4-|-------------------6-8-8-8-8-8-6-|
|----------4--7------|---------------6-8---------------|
|-----4--6-----------|-----------4-6-------------------|
|---6----------------|--------4-6----------------------|
|-6------------------|-----4-6-------------------------|
|--------------------|-4-7-----------------------------|
(Tonalità La#m)

La#m
Anna verrà
col suo modo di rubarci dentro
di sorridere per questa libertà.

|-----------7-4---------------|----------------------------|
|-----4-5-7-------------------|------4----4------4-5-4-5-7-|
|-4-6--------------3--4--3----|--4-6----6---6--6-----------|
|-----------------------------|----------------------------|
|-----------------------------|----------------------------|
|-----------------------------|----------------------------|

|-----------------------4-----|---4-6-4-6-7-6-7-7^9-9-9-7--6-7--|
|-5-7-5---4-5-4-5-7-5-7-------|-7-------------------------------|
|-------6---------------------|---------------------------------|
|-----------------------------|---------------------------------|
|-----------------------------|---------------------------------|
|-----------------------------|---------------------------------|

|-6-7-6^7^6--4-----4----------|------------------------|
|---------------7-----7--5--4-|------------------------|
|-----------------------------|--6--4--6--4---3---1----|
|-----------------------------|------------------------|
|-----------------------------|------------------------|
|-----------------------------|------------------------|

         La#m9
Anna verrà
           Re#7              Sol#m9
e sarà un giorno pieno di sole
         Sol#7         Do#m7
e allora, sì, ti cercherei
       Re#7            E
forse per sognare ancora
Re#m7
ancora
Do#m7
Anna, dimmi
      Re#7            Sol#m
se è così lontano il mare


|-7--7--6---6----|
|-4-----4---4----|
|-4-----6---6----|
|----------------|
|----------------|
|-4-----4--------|

PS: Risaluto e ringrazio Eva Stefek per avermi procurato il testo.

Ciao
Luca
# **************************************#
# Sensazione unica perché la musica     #
# ti prende anche l'anima...            # Pino Daniele
# **************************************#
rluc@freemail.it




     
Добавлено: 04.07.2013
Другие материалы по этой песне:
  • Аккорды и текст

Страница создана 04.07.2013
http://primanota.ru/pino-daniele/anna-verra-chords.htm
Привет, Гость.
Предлагаем пройти революционный курс по гитаре.
Подарок от PrimaNota.Ru, забирай!