PrimaNota.ru - самый крупный в мире бесплатный архив песенных текстов, аккордов, табулатур и нот


Pino Daniele - Lazzari Felici - таба, видео

Регистрация Запомнить меня
Войти через:  Facebook Google Twitter Vk Yandex Mail.ru

Pino Daniele - Lazzari Felici - таба, видео

Печатать
Просмотров: 78
		   --------
PINO DANIELE - Lazzari Felici

Originariamente per chitarra battente. Tradotto ed arrangiato per
accordatura standard da: Amedeo Milella.

LEGENDA

ar  -> armonici
h   -> hammer on
s   -> slide
p   -> pull off


NOTE:   pezzo non molto difficile anche se e' necessario l'utilizzo del
        pollice sulla sesta corda (MI basso) ed una buona apertura della
        mano sinistra. B consiglia l'ascolto dell'originale prima di
        intraprendere lo studio della tablatura.


INTRO

|-------12ar-------7-10-9-7-7-7h-9----------8s-10-8-7-7h8p7------
|----------------8-------------------------6----------------8----
|-------12ar---9--------------------------7-------------------6--
|----------------------------------------------------------------
|----------------------------------------------------------------
|--12ar-----------------------------1----------------------------

|-----5-3----------1--
|------------------1--
|---3------3-2-0---2--
|---------------------
|-3-------------------
|----------------1----

|---1--1--1--0--0----0----1--1--1--3--3--5--3-
|---1--1--1--1--1----1----1--1--1--1--1--3--3-
|---2--2--2--3--3----3----2--2--2--3--3--3--3- x3 (ripetuto 3 volte)
|---------------------------------------------
|---------------------------------------------
|-1----1-----1-----1----1----1-----1-----3----



|---1--1--1----3--3--3--------------------------------6-
|---1--1--2----3--3--3-----3--3--3----0--0--0--------4--
|---2--2--2----3--3--3-----4--4--4----6--6--0-------3---
|--------------------------5--5--5----5--5--5------3----
|------------1----1-------------------------------6-----
|-1----1----------------5-----5-----5----5-------4------


CANTO (prima e seconda strofa)

|---1--1--1--0--0----0----1--1--1--3--3--5--3---1--1--1--0--0-
|---1--1--1--1--1----1----1--1--1--1--1--3--3---1--1--1--1--1-
|---2--2--2--3--3----3----2--2--2--3--3--3--3---2--2--2--3--3-
|-------------------------------------------------------------
|-------------------------------------------------------------
|-1----1-----1-----1----1----1-----1-----3----1----1-----1----

|---0--0----1--1--1----3--3--3----3---3-----------------------
|---1--1----1--1--1----3--3--3----3---3---3--3--3----0--0--0--
|---3--3----2--2--2----3--3--3----3---3---4--4--4----6--6--6--
|-----------------------------------------5--5--5----5--5--5--
|--------------------1----1-----1---1-------------------------
|-1-------1----1------------------------5----5-----5----5-----

|---1--1--1--0--0----0----1--1--1--3--3--5--3---1--1--1--0--0-
|---1--1--1--1--1----1----1--1--1--1--1--3--3---1--1--1--1--1-
|---2--2--2--3--3----3----2--2--2--3--3--3--3---2--2--2--3--3-
|-------------------------------------------------------------
|-------------------------------------------------------------
|-1----1-----1-----1----1----1-----1-----3----1----1-----1----

|---0--0----3--3--3----3----3-------------------------1-----1-
|---1--1----3--3--3----3----3---3--3--3----0--0--0----1-----1-
|---3--3----3--3--3----3----3---4--4--4----6--6--6----2-----2-
|-------------------------------5--5--5----5--5--5--0---------
|---------1----1-----1----1------------------------------0----
|-1---------------------------5----5-----5----5---------------

|----1-----1-----0-----0-----0-----0--------------------------
|----1-----1-----0-----0-----0-----0-----4----4-----4----4----
|----2-----2-----0-----0-----0-----0-----3----3-----3----3----
|-0-----------------------------------1----------1------------
|-------0-----3-----------3-----------------1---------1-------
|-------------------3-----------3-----------------------------

|----------------------------------------0-
|----3--3--3-----3--3--3--1----3----5----2-
|----3--3--3-----3--3--3--0----0----0----2-
|-1-----1-----1-----1-----0----0----0------
|------------------------------------------
|-------------------------3----5----7----2-

|---1--1--1--0--0----0----1--1--1--3--3--5--3-
|---1--1--1--1--1----1----1--1--1--1--1--3--3-
|---2--2--2--3--3----3----2--2--2--3--3--3--3-
|---------------------------------------------
|---------------------------------------------
|-1----1-----1-----1----1----1-----1-----3----

|---1--1--1----3--3--3--------------------------------6-
|---1--1--2----3--3--3-----3--3--3----0--0--0--------4--
|---2--2--2----3--3--3-----4--4--4----6--6--0-------3---
|--------------------------5--5--5----5--5--5------3----
|------------1----1-------------------------------6-----
|-1----1----------------5-----5-----5----5-------4------


(ultima strofa e coda)

|---1--1--1--0--0----0----1--1--1--3--3--5--3---1--1--1--0--0-
|---1--1--1--1--1----1----1--1--1--1--1--3--3---1--1--1--1--1-
|---2--2--2--3--3----3----2--2--2--3--3--3--3---2--2--2--3--3-
|-------------------------------------------------------------
|-------------------------------------------------------------
|-1----1-----1-----1----1----1-----1-----3----1----1-----1----

|---0--0----1--1--1----3--3--3----3---3-----------------------
|---1--1----1--1--1----3--3--3----3---3---3--3--3----0--0--0--
|---3--3----2--2--2----3--3--3----3---3---4--4--4----6--6--6--
|-----------------------------------------5--5--5----5--5--5--
|--------------------1----1-----1---1-------------------------
|-1-------1----1------------------------5----5-----5----5-----

|----1-----1-----1-----1-----0-----0-----0-----0--------------
|----1-----1-----1-----1-----0-----0-----0-----0-----4----4---
|----2-----2-----2-----2-----0-----0-----0-----0-----3----3---
|-0-----------0-----------------------------------1-----------
|-------0-----------0-----3-----------3-----------------1-----
|-------------------------------3-----------3-----------------

|----------------------------------------------------0--
|----4-----4-----3--3--3-----3--3--3--1----3----5----2--
|----3-----3-----3--3--3-----3--3--3--0----0----0----2--
|-1-----------1-----1-----1-----1-----0----0----0-------
|-------1-----------------------------------------------
|-------------------------------------3----5----7----2--


CODA

|---1--1--1--0--0----0----1--1--1--------------------------
|---1--1--1--1--1----1----1--1--1-----2--2--2-----3--3--3--
|---2--2--2--3--3----3----2--2--2-----2--2--2-----3--3--3--
|-------------------------------------2--2--2-----3--3--3--
|----------------------------------0-----0-----1-----1-----
|-1----1-----1-----1----1----1-----------------------------

|----------------------------------------1--1--1-----0--0--0--
|----5-----3-----5--5--5-----3--3--3-----1--1--1-----1--1--1--
|----5-----3-----5--5--5-----3--3--3-----2--2--2-----3--3--3--
|----5-----3-----5--5--5-----3--3--3--------------------------
|-------------------------------------------------------------
|-5-----3-----5-----5-----3-----3-----1-----1-----1-----1-----

|----1--1--1--------------------------------------------------
|----1--1--1-----2--2--2-----3--3--3-----5-----3-----5--5--5--
|----2--2--2-----2--2--2-----3--3--3-----5-----3-----5--5--5--
|----------------2--2--2-----3--3--3-----5-----3-----5--5--5--
|-------------0-----0-----1-----1-----------------------------
|-1-----1-----------------------------5-----3-----5-----5-----

|-------------------------------------
|----3--3--3-----5--5--5-----3--3--3--
|----3--3--3-----5--5--5-----3--3--3--
|----3--3--3-----5--5--5-----3--3--3--
|-------------------------------------
|-3-----3-----5-----5-----3-----3-----

|---1--1--1--0--0----0----1--1--1--3--3--5--3-
|---1--1--1--1--1----1----1--1--1--1--1--3--3-
|---2--2--2--3--3----3----2--2--2--3--3--3--3-
|---------------------------------------------
|---------------------------------------------
|-1----1-----1-----1----1----1-----1-----3----

|---1--1--1----3--3--3--------------------------------6-
|---1--1--2----3--3--3-----3--3--3----0--0--0--------4--
|---2--2--2----3--3--3-----4--4--4----6--6--0-------3---
|--------------------------5--5--5----5--5--5------3----
|------------1----1-------------------------------6-----
|-1----1----------------5-----5-----5----5-------4------


Ciao alla prox!

*Amedeo Milella*
--

/Referente nazionale per L'Amiga Group Italia sez. Puglia/
Amiga Group Italia: http://www.amyresource.it/AGI

mailto:a.milella@teseo.it


     
Добавлено: 09.10.2013
Другие материалы по этой песне:
  • Аккорды и текст

Страница создана 09.10.2013
http://primanota.ru/pino-daniele/lazzari-felici-chords.htm
Привет, Гость.
Предлагаем пройти революционный курс по гитаре.
Подарок от PrimaNota.Ru, забирай!