PrimaNota.ru - самый крупный в мире бесплатный архив песенных текстов, аккордов, табулатур и нот


Pino Daniele - E' Sempre Sera - таба, видео

Регистрация Запомнить меня
Войти через:  Facebook Google Twitter Vk Yandex Mail.ru

Pino Daniele - E' Sempre Sera - таба, видео

Печатать
Просмотров: 84
Уроки эстрадного вокала в Санкт-Петербурге
		   --------
E' sempre sera
(Pino Daniele)

Trascizione ||Stef@no||
sdello@tin.it


MI-/5+                                           RE#-6(no5)
|----------------------|------------------------|---------------------|
|--13--13----------13--|-13--13----------13-----|--13--13----------13-|
|--12--12----------12--|-12--12----------12-----|--11--11----------11-|
|--10--10----------10--|-10--10----------10-----|--10--10----------10-|
|----------------------|------------------------|---------------------|
|--12------12--12------|-12------12--12------12-|--11------11--11-----|
Chist'anno nun se pò scurdà

                        RE-5+
|---------------------|---------------------|-------------------------|
|-13--13---13--13-----|--11--11----------11-|--11--11----------11-----|
|-11--11---11--11-----|--10--10----------10-|--10--10----------10-----|
|-10--10---10--10-----|--8---8-----------8--|--8---8-----------8------|
|---------------------|---------------------|-------------------------|
|-11-------11------11-|--10------10--10-----|--10------10--10------10-|
a vuote è gira è sempre sera

DO#-6(no5)                                       FA7+
|--------------------|------------------------|-------------------|
|--11--11--------11--|--11--11-----11--11-----|---10--10-----10---|
|--9---9---------9---|--9---9------9---9------|---9---9------9----|
|--8---8---------8---|--8---8------8---8------|---10--10-----10---|
|--------------------|------------------------|---8-------8-------|
|--9-------9--9------|--9----------9-------9--|-------------------|
ma c'amma

RE9+(no5)       DOdim       SOL            LA7
|-------------------------|--3--3-----3--|------------------------|
|----6-----6-----4-----4--|--3--3-----3--|--5--5--------5-----5---|
|----5-----5-----2-----2--|--4--4-----4--|--6--6--------6-----6---|
|----4-----4-----4-----4--|--------------|--5--5--------5-----5---|
|----5-----5-----3-----3--|--------------|------------------------|
|-------------------------|--3-----3-----|--5-----5--5-----5------|
fà pè avè nu poco 'e bene e sempe 'ncuollo a voglia

    REm                              D07        FA7+ RE#7+ DO#7+
|------------------5--|---------5---------3---|-------------------|
|----6--6p5-----6--6--|-----6---6-----5---5---|---5-----3-----1---|
|----5--5-------5--5--|-----5---5-----3---3---|---5-----3-----1---|
|----7--7-------7-----|-----7-----------------|---7-----5-----3---|
|----5----------5-----|-----5---------3-------|---8-----6-----4---|
|---------------------|-----------------------|-------------------|
'e dà ma i'mò nun'ngarro cchiù nun'ngarro cchiù a sunà

|--------------------------------|--------------------------------|
|--------------------------------|--------------------------------|
|--------------------------------|--------------------------------|
|--------------------------------|--------------------------------|
|--------------------------------|--------------------------------|
|--------------------------------|--------------------------------|



 MI-/5+                                          RE#-6(no5)
|---------------------|-------------------------|-----------------|
|-13--13----------13--|--13--13-----13--13------|--13--13------13-|
|-12--12----------12--|--12--12-----12--12------|--11--11------11-|
|-10--10----------10--|--10--10-----10--10------|--10--10------10-|
|---------------------|-------------------------|-----------------|
|-12------12--12------|--12---------12------12--|--11------11-----|

                        RE-5+
|---------------------|---------------------|---------------------|
|-13--13---13--13-----|--11--11----------11-|-11--11---11--11-----|
|-11--11---11--11-----|--10--10----------10-|-10--10---10--10-----|
|-10--10---10--10-----|--8---8-----------8--|-8---8----8---8------|
|---------------------|---------------------|---------------------|
|-11-------11------11-|--10------10--10-----|-10-------10------10-|

DO#-6(no5)                                       FA7+
|--------------------|-------------------------|------------------|
|--11--11--------11--|--11--11-----11--11------|--10--10-----10---|
|--9---9---------9---|--9---9------9---9-------|--9---9------9----|
|--8---8---------8---|--8---8------8---8-------|--10--10-----10---|
|--------------------|-------------------------|--8-------8-------|
|--9-------9--9------|--9----------9-------9---|------------------|
ma c'amma

RE9+(no5)    DOdim        SOL               LA7
|-----------------------|--3--3--------3--|-----------------------|
|--6-----6-----4-----4--|--3--3--------3--|--5--5--------5-----5--|
|--5-----5-----2-----2--|--4--4--------4--|--6--6--------6-----6--|
|--4-----4-----4-----4--|-----------------|--5--5--------5-----5--|
|--5-----5-----3-----3--|-----------------|-----------------------|
|-----------------------|--3-----3--3-----|--5-----5--5-----5-----|
fà pè avè nu poco 'e bene e sempe 'ncuollo a voglia

   REm                               D07          FA7+ RE#7+ DO#7+
|----------------5--|---------5------------3--|-------------------|
|---6--6p5----6--6--|----6----6-------5----5--|----5-----3-----1--|
|---5--5------5--5--|----5----5-------3----3--|----5-----3-----1--|
|---7--7------7-----|----7--------------------|----7-----5-----3--|
|---5---------5-----|----5------------3-------|----8-----6-----4--|
|-------------------|-------------------------|-------------------|
'e dà ma i'mò nun'ngarro cchiù nun'ngarro cchiù a sunà

|--------------------------------|--------------------------------|
|--------------------------------|--------------------------------|
|--------------------------------|--------------------------------|
|--------------------------------|--------------------------------|
|--------------------------------|--------------------------------|
|--------------------------------|--------------------------------|


E' sempre sera
(Pino Daniele)
da Vai mò

Chist'anno nun se pò scurdà
avuote 'e gira è sempre sera
ma c'amma fà
pè avè nu poco 'e bene
e sempre 'ncuollo a voglia 'e dà
ma i'mò nun'ngarro cchiù
ma i'mò nun'ngarro cchiù a sunà























     
Добавлено: 15.10.2013
Другие материалы по этой песне:
  • Аккорды и текст

Страница создана 15.10.2013
http://primanota.ru/pino-daniele/e-sempre-sera-chords.htm
Привет, Гость.
Предлагаем пройти революционный курс по гитаре.
Подарок от PrimaNota.Ru, забирай!