PrimaNota.ru - самый крупный в мире бесплатный архив песенных текстов, аккордов, табулатур и нот


Pino Daniele - Per Te - таба, видео

Регистрация Запомнить меня
Войти через:  Facebook Google Twitter Vk Yandex Mail.ru

Pino Daniele - Per Te - таба, видео

Печатать
Просмотров: 61
		   --------
Per Te (Pino Daniele)
Libera interpretazione

|-----------------------------------------------------|-----------------------------------
|-7^8--8-----7--7----5-----5--5^7----------------5----|-----5--5^7--7-7-7^8----5----------
|-----------------------7----------7----------7-------|--7--------------------------------
|---------------------------------------7------------7|-----------------------------------
|-----------------------------------------------------|-----------------------------------
|-----------------------------------------------------|-----------------------------------

|-2^3--3----2--2--------------------------------------|-----------------------------------
|-4^5--5----3--3----5--------5----5^7-----------------|----5------------5--7-7-7-7^8--5---
|------------------------7-------------7--------------|-7------------7--------------------
|-----------------------------------------7-----------|-------7---------------------------
|-----------------------------------------------------|-----------------------------------
|-----------------------------------------------------|-----------------------------------

|-----------------------------------------------------|-----------------------------------
|-----------------------------------------------------|-----------------------------------
|-7--6--6^7----6--7--6^7^6---4-------4----------------|-----------------7--6--9---7^11----
|---------------------------------7-----7---5--7------|--------5--9--7--------------------
|-------------------------------------------------5---|--7--9-----------------------------
|-----------------------------------------------------|-----------------------------------

|------------------------------------------7--5-5^7---|--8--8----7--7----5--3--5--5^7---3--------
|------------------------------7--5--9--7-------------|--5--5------------------------------3---2
|-------------------7--6--9--7------------------------|----------7--7----5--4--5--5^7---4--------
|----------5--9--7------------------------------------|------------------------------------4---2-
|-5--7--9---------------------------------------------|-------------------------------------------
|-----------------------------------------------------|-------------------------------------------

|--3---5---------3---5---5^7---7---7---5---4^5--------|--8--8---7--7---5-----5-5^7------------5----
|----------3---------------------------8--------------|-10-10---8--8------8--------8-------8-------
|--4---5---------4---5---5^7---7---7-------4^5--------|-------------------------------7-----------7
|----------4------------------------------------------|--------------------------------------------
|-----------------------------------------------------|--------------------------------------------
|-----------------------------------------------------|--------------------------------------------

|----5---5^7---7---7---7---8---5----------------------|-------------------------------------------
|-8----------------------------------8--7--7^8--------|--7--8--7^8^7--5-----5----7--5--7---6--4--6
|-----------------------------------------------------|------------------7------------------------
|-----------------------------------------------------|-------------------------------------------
|-----------------------------------------------------|-------------------------------------------
|-----------------------------------------------------|-------------------------------------------


|-------------------5^7--5-----------5----------------|--7-8-10-12-10--8--7--5--------------------
|-------------5--7----------8--7--8-------------------|--------------------------8--7--5----------
|-4-----4--6------------------------------------------|-----------------------------------7--6--7-
|----7------------------------------------------------|-------------------------------------------
|-----------------------------------------------------|-------------------------------------------
|-----------------------------------------------------|-------------------------------------------

|-----------------------------------------------------|-----------------------------------------
|-------5--7--5--8--7--5------------------------------|-----------------------------------------
|-6--7---------------------7--6--7--4-----------------|-6--7--6--4------------------------------
|-----------------------------------------------------|-------------7--5--4---------------------
|-----------------------------------------------------|----------------------7--5--4--5---------
|-----------------------------------------------------|-----------------------------------------

|----7--7--5---------------5--5---7--8--10-12-----------------|------------------------------
|-5-----------8--8--7--7-----------------------12--10-------10|-8--7--8---7--5---------------
|------------------------------------------------------12-----|-----------------7--6--6^7----
|-------------------------------------------------------------|------------------------------
|-------------------------------------------------------------|------------------------------
|-------------------------------------------------------------|------------------------------

|--------------------------------------------------|--8--8--7--7--5--3--5--5^7--3-----------------
|-3^2--3^2---------5^4--5^4-------7^6---7^6--------|--5--5-------------------------3----2---------
|--------------------------------------------------|--------7--7--5--4--5--5^7--4-------------4---
|----------4^2-------------5^4--------------7--5^7-|-------------------------------4----2---------
|--------------------------------------------------|------------------------------------------4---
|--------------------------------------------------|----------------------------------------------

|--------------------------------10-9-12-10-9--------------|--5-----------5----------------------
|--------------------------7------------------12-10-10^12--|-----8--7--8--------8--7--8--5-------
|--------------7--6--9--7----------------------------------|--------------------------------7----
|-------9--7-----------------------------------------------|-------------------------------------
|-5--7-----------------------------------------------------|-------------------------------------
|----------------------------------------------------------|-------------------------------------

|------------------------------|
|------------------------------|
|-5--7--6--4-------------------|
|-------------7--5-4-----------|
|---------------------7--5-----|
|------------------------------|
|-----------------------------------------------------|-----------------------------------
|-7^8--8-----7--7----5-----5--5^7----------------5----|-----5--5^7--7-7-7^8----5----------
|-----------------------7----------7----------7-------|--7--------------------------------
|---------------------------------------7------------7|-----------------------------------
|-----------------------------------------------------|-----------------------------------
|-----------------------------------------------------|-----------------------------------

|-2^3--3----2--2--------------------------------------|-----------------------------------
|-4^5--5----3--3----5--------5----5^7-----------------|----5------------5--7-7-7-7^8--5---
|------------------------7-------------7--------------|-7------------7--------------------
|-----------------------------------------7-----------|-------7---------------------------
|-----------------------------------------------------|-----------------------------------
|-----------------------------------------------------|-----------------------------------

|-----------------------------------------------------|-----------------------------------
|-----------------------------------------------------|-----------------------------------
|-7--6--6^7----6--7--6^7^6---4-------4----------------|-----------------7--6--9---7^11----
|---------------------------------7-----7---5--7------|--------5--9--7--------------------
|-------------------------------------------------5---|--7--9-----------------------------
|-----------------------------------------------------|-----------------------------------

|-----------------------------7-5-9-7-10-9--|-10---10--10--9---7---5---7-----------
|---------------------7-5-9-7---------------|--7----7--7---------------------------
|-------------7-6-9-7-----------------------|--------------9---7---6---7-----------
|-------5-9-7-------------------------------|--------------------------------------
|-5-7-5-------------------------------------|--------------------------------------
|-------------------------------------------|--------------------------------------
Se qualcuno trova eresie mi puo' (e mi deve) scrivere.

# **************************************#
# Sensazione unica perché la musica     #
# ti prende anche l'anima...            # Pino Daniele
# **************************************#
rluc@freemail.it

Ciao.






     
Добавлено: 02.10.2013
Другие материалы по этой песне:
  • Аккорды и текст

Страница создана 02.10.2013
http://primanota.ru/pino-daniele/per-te-chords.htm
Привет, Гость.
Предлагаем пройти революционный курс по гитаре.
Подарок от PrimaNota.Ru, забирай!