PrimaNota.ru - самый крупный в мире бесплатный архив песенных текстов, аккордов, табулатур и нот


Pino Daniele - Sulo Pe' Parla' - таба, видео

Регистрация Запомнить меня
Войти через:  Facebook Google Twitter Vk Yandex Mail.ru

Pino Daniele - Sulo Pe' Parla' - таба, видео

Печатать
Просмотров: 97
Уроки эстрадного вокала в Санкт-Петербурге
		   --------
Sulo pe' parlà
(Pino Daniele)

Trascrizione ||Stef@no||
sdello@tin.it


CAPOTASTO IV

  SI-              FA#-7/SI              SOL6
|-----------------|--------------------|--------------------|
|-----2--3--2-----|--2-----0--2--0-----|--0--------0--------|
|--4-----------4--|--2--2-----------2--|--0--0--2-----2--0--|
|--4--------------|--------------------|--0-----------------|
|--2--------------|--2-----------------|--------------------|
|-----------------|--------------------|--3-----------------|

FA#-7               MI-                   FA#
|------------------|---------------------|------------------|
|------------------|---------------------|------------------|
|-2-----0--2--0----|-0--0--------0-------|-3----------------|
|-2--4-----------4-|-2-----2--4-----4--2-|-4--2--2--0--2--4-|
|------------------|-2-------------------|-4----------------|
|-2----------------|-0-------------------|-2----------------|

SI7+         SI7+/13    SI-              FA#-7/SI
|----------|--4------|-----------------|--------------------|
|-------4--|------4--|-----2--3--2-----|--2-----0--2--0-----|
|---3------|---------|--4-----------4--|--2--2-----------2--|
|---4------|---------|--4--------------|--------------------|
|---2------|---------|--2--------------|--2-----------------|
|----------|---------|-----------------|--------------------|

SOL6                FA#-7               MI-/SI
|------------------|------------------|---------------------|
|-0--------0-------|------------------|---------------------|
|-0--0--2-----2--0-|-2-----0--2--0----|--0--0-------0-------|
|-0----------------|-2--4-----------4-|--2-----2/4-----4--2-|
|------------------|------------------|--2------------------|
|-3----------------|-2----------------|---------------------|

  FA#5+             SI7+         SI7+/13       SI-
|--2--------------|------------|--4------|------------------|
|--3--------------|--------4---|------4--|--2---3------2--3-|
|--3--------------|----3-------|------3--|------2---4-------|
|--4-----4--4--4--|----4-------|---------|------4-----------|
|-----------------|----2-------|---------|------2-----------|
|-----------------|------------|---------|------------------|

  MI-7              LA7/4                       RE7+
|-----------------|--------------------------|--------------|
|-3------0--2--3--|--3--2--2--------------2--|--2---------2-|
|-0---------0-----|--0--------4--4--2--2-----|--2---2--4----|
|-2---4-----------|--2-----------3-----------|--0-----------|
|-----------------|--0-----------------------|--------------|
|-0---------------|--------------------------|--------------|

  MI-          FA#         SI-       SIb7           LAm
|-------------|---------|----------|-----0--------|---------|
|-0-----------|---------|--3-------|--3-----1--0--|-----1---|
|-0--0--------|-3-------|--4-------|--1-----------|--2------|
|-0-----4--2--|-4-------|--4-------|--3-----------|--2------|
|-------------|-4---4---|--2-------|--1-----------|--0------|
|-0-----------|-2-------|----------|--------------|---------|

  LAb7+           SOL7+/13
|---------------|--------------------|----------|-----5-----|
|-----3-----0---|--0-----------------|----5-----|-----------|
|--5-----5------|--4--2--0-----------|----4-----|-----------|
|--5------------|--4--------4--2--0--|----4-----|-----------|
|---------------|--------------------|----------|-----------|
|--4------------|--3-----------------|----3-----|-----------|



Sulo pe' parlà
(Pino Daniele)

CAPOTASTO IV

SI-               FA#-7/SI
Astregneme cchiù forte
               SOL6
e famme uscì a paura
               FA#-7
'e chi s'è reso conto
               MI-
ca nun vò a nisciuno
FA#5+
pecchè niente e nisciuno
FA#7    SI7+/13
te pò fà vedè
SI-          FA#-7/SI
e prova a te girà
SOL6
pè dinto o' lietto 'e notte
                  FA#-7
c'arteca 'e chi è stato
              MI-/SI
tutt'a vita a sotto
                FA#5+
pecchè nun sape maie
FA#7      SI7+/13
chello che dà
SI-    SI-7
e po' . . a colpa è 'a mia
MI-
'a colpa è a' mia
LA7                    RE7+
ca nun te saccio cchiù piglià
           MI-
è colpa mia
FA#5+ FA#7      SI- SIb LAm7
ma è sule pè parlà . . .
LAb7+   SOL7+/13
pe parlà


FA#-7/SI        SOL6        FA#5+      FA#-7
|----2----| |----0----| |----2----| |----2----|
|----2----| |----0----| |----3----| |----2----|
|----2----| |----0----| |----3----| |----2----|
|----2----| |----0----| |----4----| |----4----|
|----2----| |----2----| |---------| |---------|
|---------| |----3----| |----2----| |---------|

   MI-/SI     SI7+/13       LAb7+     SOL7+/13
|----0----| |----4----| |---------| |----5----|
|----0----| |----4----| |----4----| |----5----|
|----0----| |----3----| |----5----| |----4----|
|----2----| |----4----| |----5----| |----4----|
|----2----| |----2----| |---------| |---------|
|---------| |---------| |----4----| |----3----|



||Stef@no||
sdello@tin.it






     
Добавлено: 01.12.2013
Другие материалы по этой песне:
  • Аккорды и текст

Страница создана 01.12.2013
http://primanota.ru/pino-daniele/sulo-pe-parla-chords.htm
Привет, Гость.
Предлагаем пройти революционный курс по гитаре.
Подарок от PrimaNota.Ru, забирай!