PrimaNota.ru - самый крупный в мире бесплатный архив песенных текстов, аккордов, табулатур и нот


Pino Daniele - Sicily - таба, видео

Регистрация Запомнить меня
Войти через:  Facebook Google Twitter Vk Yandex Mail.ru

Pino Daniele - Sicily - таба, видео

Печатать
Просмотров: 166
		   --------
SICILY
Pino Daniele
dall'album LIVE "E sona mò"

Trascizione ||Stef@no||
sdello@tin.it


Successione delle parti:
Intro
Part. A (1.)
Part. A (2.)
Part. B
Part. A (3.)
Part. B
Part. C (Intermezzo strumentale - samba)
Part. B
Finale


Intro:

   DO#-7
|---12-----------12---11---9---9---------------12---11---9---|
|------------9-----------------------------9-----------------|
|--------9------------11---9---9-------9------------11---9---|
|------------------------------------------------------------|
|------------------------------------------------------------|
|---9------------------------------9-------------------------|

   RE#
|------------------------------------------------------------|
|--4-------4---5---4h5p4-------2/7---7---5---5---4h5p4--4\2--|
|--------------------------6---------------------------------|
|------5-------5---5-----------2/7---7---6---6---4------4\2--|
|--6---------------------------------------------------------|
|------------------------------------------------------------|

    FA#-7
|----------------------------------------2---4---5---7---5---|
|---4---4---2---1---1----------------4-----------------------|
|----------------------------2---5---------------------------|
|---4---4---2---1---1----4-----------------------------------|
|------------------------------------------------------------|
|---2--------------------------------------------------------|

   DO#-7                      LAm7          SOL#7
|--4h5p4----4------------------------------------------------|
|----------------7---6---5-------------5----4------------4---|
|----------------------------------------------------5-------|
|----------------7---6---5---------5--------4----4-----------|
|-----------------------------0------------------------------|
|-------------------------------------------4----------------|

   DO#-7
|--------------12---11---9---9----------------12---11---9----|
|----------9------------------------------9------------------|
|------9------------11---9---9--------9------------11---9----|
|------------------------------------------------------------|
|------------------------------------------------------------|
|--9------------------------------9--------------------------|




  RE#
|------------------------------------------------------------|
|-4---4---4---4---5---4h5p4-----2/7---7---5---5---4h5p4--4\2-|
|----------------------------6-------------------------------|
|-5---5---5---5---5---5---------2/7---7---6---6---4------4\2-|
|-6----------------------------------------------------------|
|------------------------------------------------------------|

  FA#-7                LAdim DOdim LAdim(2)
|--------------------------2---5---8-----8---7---5---4---5---|
|-4--------4---2---1---1---1---4---7----7--------------------|
|-------2------------------2---5---8---8---------------------|
|-4--4---------2---1---1---1---4---7--7----------------------|
|------------------------------------------------------------|
|-2----------------------------------------------------------|

  DO#-7                         LAm7     SOL#7
|---4h5p4-------4-------------------------------|
|-----------7-------7---6---5-------5-------4---|
|-----------------------------------------------|
|-------------------7---6---5-------5-------4---|
|-------------------------------0---------------|
|---------------------------------------4-------|
                                Un posto ci sarà



Part. A

  SOL#-5+                              SOL-5+
|-----------------------------------|------------------------------------|
|----5-----5-----5--5-----5---5---5-|--4----4---4----4---4----4---4----4-|
|----4-----4-----4--4-----4---4---4-|--3----3---3----3---3----3---3----3-|
|----2-----2-----2--2-----2---2---2-|--1----1---1----1---1----1---1----1-|
|-4-------------------------4-------|------------------------------------|
|------0-4--------4-----------------|--3------3--------3--------3--------|
1.                    per questa solitudine               perchè mi sento
2. sarà               dove puoi alzarti presto          il giorno finisce
3. sarà               per essere felici            cantare a squarciagola

  FA#-7                               DO#7              DO#9b
|----------------------------------|-------------------------------------|
|-2----2---2----2---2----2---2---2-|-2----2---2----2--3--3----3---3----3-|
|-2----2---2----2---2----2---2---2-|-4----4---4----4--4--4----4---4----4-|
|-2----2---2----2---2----2---2---2-|-3----3---3----3--3--3----3---3----3-|
|----------------------------------|-4------4---------4---------4--------|
|-2------2--------2--------2-------|-------------------------------------|
1. così inutile     davanti alla realtà                       un posto ci
2. dispetto         e haje voglia d'alluccà                  che un posto
3. e dici           tutt' chell' ca vuò tu                    Un posto ci

   SI-/MI                               RE#9+
|--2----2---2----2---2----2---2---2-|------------------------------------|
|--3----3---3----3---3----3---3---3-|--7-----7---7----7---7----7---7---7-|
|--4----4---4----4---4----4---4---4-|--6-----6---6----6---6----6---6---6-|
|-----------------------------------|--5-----5---5----5---5----5---5---5-|
|-----------------------------------|--6-------6--------6--------6-------|
|--0------0--------0--------0-------|------------------------------------|
1.  sarà               fatto di lava e sale                 dove la gente
2.  sarà               dove si pesca ancora             e il mare porterà
3.  sarà               dove si spera ancora              la gente porterà


  LA/DO#                               LAm7               SOL#7
|-----------------------------------|------------------------------------|
|-2----2---2----2----2----2---2---2-|--5----5---5-----5---4----4---4---4-|
|-2----2---2----2----2----2---2---2-|--5----5---5-----5---5----5---5---5-|
|-2----2---2----2----2----2---2---2-|--7----7---7-----7---4----4---4---4-|
|-4------4--------4---------4-------|------------------------------------|
|-----------------------------------|--5------5---------4--------4-------|
1.   sa                che è ora di cambiare                 un posto ci
2.                     una storia nova                      io son pazzo
3.                     una storia nova                      io son pazzo



Part. B

   DO#7                          FA#-7
|----------------------------|------------2-----2--4--5--7--5----------|
|-2----2---2---2---2---2---2-|---------2-----2--------5--------------4-|
|-4----4---4---4---4---4---4-|------2-----------------5-----------5----|
|-3----3---3---3---3---3---3-|---2--------------------7--------4-------|
|-4------4-------4-------4---|-----------------------------------------|
|----------------------------|-2---------------------------------------|
   di te              'e chesta fortuna

SI-7 SIb-7 LAm7                    SI7/RE#          FA7+ MI   SOL#7
|-2--1--0--0--0----0--0-----0------2--2-----2--2-|-5--4--------------4-|
|-3--2--1--1--1----1--1-----1------0--0-----0--0-|-5--5-----------4----|
|-2--1--0--0--0----0--0-----0------2--2-----2--2-|-5--4--------5-------|
|-4--3--2-----------------------1--------1-------|-3--6-----4----------|
|-2--1--0-------0--------0-----------------------|----7----------------|
|------------------------------------------------|--------4------------|
 Sicily                        terra 'e nisciuno          (Un posto ci)


Part. C (Tempo di samba)


  SOL#-5+
|--------------------------------------------------------|
|--5--5-----5--5--5-----5--5--5--5-----5--5--5-----5--5--|
|--4--4-----4--4--4-----4--4--4--4-----4--4--4-----4--4--|
|--2--2-----2--2--2-----2--2--2--2-----2--2--2-----2--2--|
|--4-----------4--------------4-----------4--------------|
|--------4-----------4--------------4-----------4--------|

  SOL-5+
|--------------------------------------------------------|
|--4--4-----4--4--4-----4--4--4--4-----4--4--4-----4--4--|
|--3--3-----3--3--3-----3--3--3--3-----3--3--3-----3--3--|
|--1--1-----1--1--1-----1--1--1--1-----1--1--1-----1--1--|
|--------------------------------------------------------|
|--3-----3-----3-----3--------3-----3-----3-----3--------|

   FA#-7
|--------------------------------------------------------|
|--2--2-----2--2--2-----2--2--2--2-----2--2--2-----2--2--|
|--2--2-----2--2--2-----2--2--2--2-----2--2--2-----2--2--|
|--2--2-----2--2--2-----2--2--2--2-----2--2--2-----2--2--|
|--------------------------------------------------------|
|--2-----2-----2-----2--------2-----2-----2-----2--------|


    DO#7                     DO#9b
|--------------------------------------------------------|
|-----2-----2--2--2-----2--2--3--3-----3--3--3-----3--3--|
|-----4-----4--4--4-----4--4--4--4-----4--4--4-----4--4--|
|-----3-----3--3--3-----3--3--3--3-----3--3--3-----3--3--|
|--4-----------4--------------4-----------4--------------|
|--------4-----------4--------------4-----------4--------|

  SI-/MI
|--2--2-----2--2--2-----2--2--2--2-----2--2--2-----2--2--|
|--3--3-----3--3--3-----3--3--3--3-----3--3--3-----3--3--|
|--4--4-----4--4--4-----4--4--4--4-----4--4--4-----4--4--|
|--------------------------------------------------------|
|--------------------------------------------------------|
|--0-----0-----0-----0--------0-----0-----0-----0--------|

  RE#9+
|--------------------------------------------------------|
|--7--7-----7--7--7-----7--7--7--7-----7--7--7-----7--7--|
|--6--6-----6--6--6-----6--6--6--6-----6--6--6-----6--6--|
|--5--5-----5--5--5-----5--5--5--5-----5--5--5-----5--5--|
|--6-----------6--------------6-----------6--------------|
|--------6-----------6--------------6-----------6--------|

  LA/DO#                        LAm7               SOL#7
|-----------------------------|---------5--7--5----4---4--4-|
|--2--2-----2--2--2-----2--2--|-------5------------4---4--4-|
|--2--2-----2--2--2-----2--2--|-----5--------------5---5--5-|
|--2--2-----2--2--2-----2--2--|---7-------------------------|
|--4-----4-----4-----4--------|-----------------------------|
|-----------------------------|-5------------------4------4-|
                                               (io son pazzo)

Finale:

DO#-7
|----------------12---11---9---------------12---11--11--9---|
|------------9-------------------------9--------------------|
|--------9------------11---9-------9------------11--11--9---|
|-----------------------------------------------------------|
|-----------------------------------------------------------|
|---9--------------------------9----------------------------|

   RE#
|-----------------------------------------------------------|
|-4-------4---5---4h5p4-------2/7---7---5---5---4h5p4--4\2--|
|-------------------------6---------------------------------|
|-----5-------5---5-----------2/7---7---6---6---4------4\2--|
|-6---------------------------------------------------------|
|-----------------------------------------------------------|

  FA#-7
|----------------------------------------2---4---5---7---5--|
|---4---4---2---1---1----------------4----------------------|
|----------------------------2---5--------------------------|
|---4---4---2---1---1----4----------------------------------|
|-----------------------------------------------------------|
|---2-------------------------------------------------------|





   DO#-7                      LA7          SOL#7
|--4h5p4----4-----------------------------------------------|
|----------------7---6---5-------------5----4------------4--|
|----------------------------------------------------5------|
|----------------7---6---5---------5--------4----4----------|
|-----------------------------0-----------------------------|
|-------------------------------------------4---------------|

  DO#-7
|--------------12---11---9---9----------------12---11---9---|
|----------9------------------------------9-----------------|
|------9------------11---9---9--------9------------11---9---|
|-----------------------------------------------------------|
|-----------------------------------------------------------|
|--9------------------------------9-------------------------|

  RE#
|-----------------------------------------------------------|
|-4--4---4---4---5---4h5p4-----2/7---7---5---5---4h5p4--4\2-|
|---------------------------6-------------------------------|
|-5--5---5---5---5---5---------2/7---7---6---6---4------4\2-|
|-6---------------------------------------------------------|
|-----------------------------------------------------------|

  FA#-7
|-------------------------------------------------2---------|
|--4-----------4----2----1----1----2----4----5---------5----|
|----------2------------------------------------------------|
|--4---4------------2----1----1-----------------------------|
|-----------------------------------------------------------|
|--2--------------------------------------------------------|

 DO#-7              LAm7 SOL#7 SOL#-7 FA#-7  SOL  FA   DO#-7
|------------------------------|------------|--------|---4--|
|-4h5p4--2-----7---6---5----4--|--4-----2---|--------|---5--|
|------------------------------|------------|-4---2--|---4--|
|--------------7---6---5----4--|--4-----2---|--------|---6--|
|------------------------------|------------|-5---3--|---4--|
|------------------------------|------------|--------|------|
                                                      Sicily


 IX     DO#-7         III   RE#            II    FA#-7
 +---+---+---+-O-+    +-O-+---+---+---+    +---+---+---+---+
 +-O-+---+---+---+    +---+-O-+---+---+    +-O-+---+---+---+
 +-O-+---+---+---+    +-O-+---+---+---+    +-O-+---+---+---+
 +-O-+---+---+---+    +---+---+-O-+---+    +-O-+---+---+---+
 +---+---+---+---+    +---+---+---+-O-+    +---+---+---+---+
 +-O-+---+---+---+    +---+---+---+---+    +-O-+---+---+---+


  V  LAm7             IV   SOL#7            I  LAdim
 +---+---+---+---+    +-O-+---+---+---+    +---+-O-+---+---+
 +-O-+---+---+---+    +-O-+---+---+---+    +-O-+---+---+---+
 +-O-+---+---+---+    +---+-O-+---+---+    +---+-O-+---+---+
 +-O-+---+---+---+    +-O-+---+---+---+    +-O-+---+---+---+
 +---+---+---+---+    +---+---+-O-+---+    +---+---+---+---+
 +-O-+---+---+---+    +-O-+---+---+---+    +---+---+---+---+


 IV DOdim              VII LAdim(2)        II   SOL#-5+
 +---+-O-+---+---+    +---+-O-+---+---+    +---+---+---+---+
 +-O-+---+---+---+    +-O-+---+---+---+    +---+---+---+-0-+
 +---+-O-+---+---+    +---+-O-+---+---+    +---+---+-O-+---+
 +-O-+---+---+---+    +-O-+---+---+---+    +-O-+---+---+---+
 +---+---+---+---+    +---+---+---+---+    +---+---+---+---+
 +---+---+---+---+    +---+---+---+---+    +---+---+-O-+---+

  I  SOL-5+            II DO#7              III  DO#9b
 +---+---+---+---+    +---+---+---+---+    +-O-+---+---+---+
 +---+---+---+-O-+    +-O-+---+---+---+    +-O-+---+---+---+
 +---+---+-O-+---+    +---+---+-O-+---+    +---+-O-+---+---+
 +-O-+---+---+---+    +---+-O-+---+---+    +-O-+---+---+---+
 +---+---+---+---+    +---+---+-O-+---+    +---+-O-+---+---+
 +---+---+-O-+---+    +---+---+---+---+    +---+---+---+---+

   SI-/MI               V RE#9+               II LA/DO#
 +---+-O-+---+---+    +---+---+---+---+    +---+---+---+---+
 +---+---+-O-+---+    +---+---+-O-+---+    +-O-+---+---+---+
 +---+---+---+-O-+    +---+-O-+---+---+    +-O-+---+---+---+
 +---+---+---+---+    +-O-+---+---+---+    +-O-+---+---+---+
 +---+---+---+---+    +---+-O-+---+---+    +---+---+-O-+---+
O+---+---+---+---+    +---+---+---+---+    +---+---+---+---+


  II  SI-7             I  SIb-7              LAm7
 +-O-+---+---+---+    +-O-+---+---+---+   O+---+---+---+---+
 +---+-O-+---+---+    +---+-O-+---+---+    +-O-+---+---+---+
 +-O-+---+---+---+    +-O-+---+---+---+   O+---+---+---+---+
 +---+---+-O-+---+    +---+---+-O-+---+    +---+-O-+---+---+
 +-O-+---+---+---+    +-O-+---+---+---+   O+---+---+---+---+
 +---+---+---+---+    +---+---+---+---+    +---+---+---+---+


  SI7/RE#              III  FA7+            IV    MI
 +---+-O-+---+---+    +---+---+-O-+---+    +-O-+---+---+---+
O+---+---+---+---+    +---+---+-O-+---+    +---+-O-+---+---+
 +---+-O-+---+---+    +---+---+-O-+---+    +-O-+---+---+---+
 +-O-+---+---+---+    +-O-+---+---+---+    +---+---+-O-+---+
 +---+---+---+---+    +---+---+---+---+    +---+---+---+-O-+
 +---+---+---+---+    +---+---+---+---+    +---+---+---+---+


Ho trascritto questo brano dopo aver ascoltato attentamente il CD "E sona
mo" e dopo aver visionato alcuni video dal vivo.
Ogni parere da parte vostra diretto a modificare nonchè migliorare la
presente trascrizione sarà ben accetto.
Ciao, Stefano
sdello@tin.it








     
Добавлено: 23.08.2013
Другие материалы по этой песне:

Страница создана 23.08.2013
http://primanota.ru/pino-daniele/sicily-chords.htm
Привет, Гость.
Предлагаем пройти революционный курс по гитаре.
Подарок от PrimaNota.Ru, забирай!