PrimaNota.ru - самый крупный в мире бесплатный архив песенных текстов, аккордов, табулатур и нот


Pino Daniele - Mareluna - таба, видео

Регистрация Запомнить меня
Войти через:  Facebook Google Twitter Vk Yandex Mail.ru

Pino Daniele - Mareluna - таба, видео

Печатать
Просмотров: 87
This is all my own work
I wish you know Pino Daniele, an excellent italian guitarist and singer.
^_^
G this is one of his best song from his last album "Medina".
 
 
The used chords are
 
Dm   (X00231) or a Dm on the 5th fret (X5776X)
Gm   (355333)
 
 
 

|----------
|----------
|--7ar-----
|-----7ar--
|----------
|----------
 
|---------------|
|---1--3\5--3---|
|-2-------------|
|---------------|
|---------------|
|---------------|
 
Stanotte questa luna,
 
|------------|
|------------|
|-2--2\5--3--|
|------------|
|------------|
|------------|
 
c'illumina
 
|-1---3---3^5---------|
|---------------------|
|-2---3---3^5---------|
|---------------------|
|---------------------|
|---------------------|
 
 
 
la mia vita e la tua
 
|----------------------|
|---1--3\5--5^6^5^3--3-|
|-2--------------------|
|----------------------|
|----------------------|
|----------------------|
 
A casa sulla duna
 
|------------|
|------------|
|-2--4\5--3--|
|------------|
|------------|
|------------|
 
lontana è la città
 
|-1---3---3^5----|
|----------------|
|-2---3---3^5----|
|----------------|
|----------------|
|----------------|
 
Il mare ci porterà via
 
|-1---3---3^5-----|
|-----------------|
|-2---3---3^5-----|
|-----------------|
|-----------------|
|-----------------|
 
|-6--6---5---3---1---3--|------5--5--3--1--0--1---|
|-3--3------------------|-------------------------|
|--------5---3---2---3--|------5--5--3--2--0--2---|
|-----------------------|-------------------------|
|-----------------------|-------------------------|
|-----------------------|-------------------------|
 
, via
|--3--3--1--0--2--3^5---|--6--5--3--1--3--1--3-3^5|
|-----------------------|--3----------------------|
|--3--3--2--0--1--3^5---|-----5--3--2--3--2--3-3^5|
|-----------------------|-------------------------|
|-----------------------|-------------------------|
|-----------------------|-------------------------|
 
|-6--6---5---3---1---3--|-------------------------|
|-3--3------------------|-------------------------|
|--------5---3---2---3--|-------STACCO------------|
|-----------------------|-------------------------|
|-----------------------|-------------------------|
|-----------------------|-------------------------|
 
Chorus
 
|--5--3-------------5--3---------3--5---------  |
|-------6--5--6----------6--5--6--------------  |
|---------------------------------------------  |
|---------------------------------------------  |
|---------------------------------------------  |
|---------------------------------------------  | 
                                                |  X 2
|--5--3-------------5--3----------------------  | 
|-------6--5--6----------6--5--3--6--5--3--5--  |
|---------------------------------------------  |
|---------------------------------------------  |
|---------------------------------------------  |
|---------------------------------------------  |
 

Mareluna questa notte
sarai mia ancora
Fino a che la luce arriva ed allora
A luna se ne andrà
 
 
 
|--5--3-------------5--3---------3--5---------  |
|-------6--5--6----------6--5--6--------------  |
|---------------------------------------------  |
|---------------------------------------------  |
|---------------------------------------------  |
|---------------------------------------------  |
                                                |  X 2
|--5--3-------------5--3----------------------  | 
|-------6--5--6----------6--5--3--6--5--3--5--  |
|---------------------------------------------  |
|---------------------------------------------  |
|---------------------------------------------  |
|---------------------------------------------  |
 
 
 
Mareluna questo amore ci
sconvolge ancora
Fino a che arriverà l'aurora
Ma il mare resterà
 

|--5--3-------------5--3---------3--5---------  |
|-------6--5--6----------6--5--6--------------  |
|---------------------------------------------  |
|---------------------------------------------  |
|---------------------------------------------  |
|---------------------------------------------  |
                                                |  X 2
|--5--3-------------5--3----------------------  | 
|-------6--5--6----------6--5--3--6--5--3--5--  |
|---------------------------------------------  |
|---------------------------------------------  |
|---------------------------------------------  |
|---------------------------------------------  |
 

|-------------------------------------------3--3--|
|--3--5--6----3--5--6----3--5--6----3--5--6-------|
|-------------------------------------------------|
|-------------------------------------------------|
|-------------------------------------------------|
|-------------------------------------------------|
 
|------3-------3--------3--5-6-5-3---3-------------|
|-5--6----5--6----5--6-------------6----6-5-3-5--3-|
|--------------------------------------------------|
|--------------------------------------------------|
|--------------------------------------------------|
|--------------------------------------------------|
 
|-------3-------------|
|-5--6-----5--3-------|
|----------------5--3-|  improvise in Dm
|---------------------|
|---------------------|
|---------------------|
 

Mareluna
 

|--5--3-------------5--3---------3--5---------  |
|-------6--5--6----------6--5--6--------------  |
|---------------------------------------------  |
|---------------------------------------------  |
|---------------------------------------------  |
|---------------------------------------------  |
                                                |  X 2
|--5--3-------------5--3----------------------  | 
|-------6--5--6----------6--5--3--6--5--3--5--  |
|---------------------------------------------  |
|---------------------------------------------  |
|---------------------------------------------  |
|---------------------------------------------  |
 
Mareluna.........
 

HAVE FUN!   by [BLN]RaZoR
 
 

 

     
Добавлено: 18.07.2013
Другие материалы по этой песне:
  • Аккорды и текст

Страница создана 18.07.2013
http://primanota.ru/pino-daniele/mareluna-chords.htm
Привет, Гость.
Предлагаем пройти революционный курс по гитаре.
Подарок от PrimaNota.Ru, забирай!