PrimaNota.ru - самый крупный в мире бесплатный архив песенных текстов, аккордов, табулатур и нот


Misc Computer Games - The World Ends With You - Hybrid - бас-таба, видео

Регистрация Запомнить меня
Войти через:  Facebook Google Twitter Vk Yandex Mail.ru

Misc Computer Games - The World Ends With You - Hybrid - бас-таба, видео

Печатать
Просмотров: 67
The World Ends With You - Hybrid

Tabbed by: Ashy (XxThreeCheersxX)
E-mail: burdickash@gmail.com

Tuning: Standard

This is one is very simple; happy playing!

Verse 
G|---------------------------------|
D|---------------------------------|
A|-5-7-7-7-7-7-7-7-5-7-7-7-7-7-7-7-| x 5
E|---------------------------------|

G|---------------------------------|
D|---------------------------------|
A|-x-x--x-x-x--x-x-----------------|
E|---------------------------------|

G|---------------------------------|
D|---------------------------------|
A|-5-7-7-7-7-7-7-7-5-7-7-7-7-7-7-7-| x 4
E|---------------------------------|

Chorus
G|---------------------------------|
D|---------------------------------|
A|-5-7-7-7-7-7-7-7-5-7-7-7-7-7-7-7-| x 3
E|---------------------------------|

G|---------------------------------|
D|---------------------------------|
A|-5-7-7-7-7-7-7-7-5-7-7-----------| 
E|---------------------------------|

G|---------------------------------|
D|---------------------------------|
A|-5-7-7-7-7-7-7-7-5-7-7-7-7-7-7-7-| x 4
E|---------------------------------|

Post-Chorus 
G|---------------------------------|
D|---------------------------------|
A|-5-7-7-7-7-7-7-7-5-7-7-7-7-7-7-7-| 
E|---------------------------------|

G|---------------------------------|
D|---------------------------------|
A|-5-7-7-7-7-7-7-7-5-7-7-----------| 
E|---------------------------------|

Verse II
G|----------------------------------------------------|
D|----------------------------------------------------|
A|-5--7--7--7--5--7--7--7--5--7--7--7-----------------|
E|------------------------------------------0-0-------|

G|------------------------------------------|
D|------------------------------------------|
A|-5--7--7--7--5--7--7--7--5--7--7--7-------|
E|------------------------------------------|

G|---------------------------------|
D|---------------------------------|
A|-x-x--x-x-x--x-x-----------------|
E|---------------------------------|

G|---------------------------------|
D|---------------------------------|
A|-5-7-7-7-7-7-7-7-5-7-7-7-7-7-7-7-| x 4
E|---------------------------------|

Chorus 

Post-Chorus II
G|---------------------------------|
D|---------------------------------|
A|-5-7-7-7-7-7-7-7-5-7-7-7-7-7-7-7-| 
E|---------------------------------|

Bridge (no bass)

G|-----------------|
D|-----------------|
A|-5-7-7-7-7-7-7-7-| 
E|-----------------|

Chorus

Outro
G|-------------------------|
D|-------------------------|
A|-5-7-7-7-7-7-7-7-5-7-7-7-|
E|-------------------------|


| /  slide up
| \  slide down
| h  hammer-on
| p  pull-off
| ~  vibrato
| +  harmonic
| x  Mute note
===============================================================================
Добавлено: 15.02.2016
Другие материалы по этой песне:
  • Аккорды и текст

Страница создана 15.02.2016
http://primanota.ru/misc-computer-games/world-ends-with-you-hybrid-chords.htm
Привет, Гость.
Предлагаем пройти революционный курс по гитаре.
Подарок от PrimaNota.Ru, забирай!