PrimaNota.ru - самый крупный в мире бесплатный архив песенных текстов, аккордов, табулатур и нот


Misc Computer Games - The World Ends With You - Shibuya - бас-таба

Регистрация Запомнить меня
Войти через:  Facebook Google Twitter Vk Yandex Mail.ru

Misc Computer Games - The World Ends With You - Shibuya - бас-таба

Печатать
Просмотров: 47
The World Ends With You - Shibuya

Tabbed by: Ashy (XxThreeCheersxX)
E-mail: burdickash@gmail.com

Tuning: Standard

Part I
G|----------------------|
D|---------9------------|
A|-5--7---------7----7--| x 8
E|----------------------|

Part II x 2
G|-----------------------------------------|
D|-----------------------------------------|
A|-------------------------------5----3----|
E|-5--5----5----5--------5--5--------------|

G|----------------------------------------------|
D|----------------------------------------------|
A|-------------------------------5--3-----3--3--|
E|-5--5----5-------------5--5----------3--------|

Part I again

Happy playing!

| /  slide up
| \  slide down
| h  hammer-on
| p  pull-off
| ~  vibrato
| +  harmonic
| x  Mute note
===============================================================================
Добавлено: 15.02.2016
Другие материалы по этой песне:
  • Аккорды и текст

Страница создана 15.02.2016
http://primanota.ru/misc-computer-games/world-ends-with-you-shibuya-chords.htm
Привет, Гость.
Предлагаем пройти революционный курс по гитаре.
Подарок от PrimaNota.Ru, забирай!