PrimaNota.ru - самый крупный в мире бесплатный архив песенных текстов, аккордов, табулатур и нот


Misc Computer Games - The Witcher 3 - Spikeroog - таба, видео

Регистрация Запомнить меня
Войти через:  Facebook Google Twitter Vk Yandex Mail.ru

Misc Computer Games - The Witcher 3 - Spikeroog - таба, видео

Печатать
Просмотров: 88
-------------------------------------------------------------------------------
                             Spikeroog - Mikolai Stroinski (from The Witcher 3)
-------------------------------------------------------------------------------
Tabbed by: SynysterSpencer

I figured this out by ear so if anyone wants to provide any feedback, I'd be glad to look at it. This tab only 
covers about the first 45 seconds of the song.

Here's a link to the song if you want to listen or play along: https://www.youtube.com/watch?v=E9nZbZfWQoI

Tuning: EADGBE

e|---------------13--17--12--12h13p12p10h12~----13-12----------17~-----------|(*or play 10/17 for cool slide)
B|------10~---15--------------------------------------13--(*15)--------------| 
G|---7-----------------------------------------------------------------------|
D|---------------------------------------------------------------------------|
A|---------------------------------------------------------------------------|
E|---------------------------------------------------------------------------|

e|-----------17-20-19-19h20p19p17h19~--20-19-----17-22-17~--15~-22-17~-------|
B|---15~--18---------------------------------20------------------------------|
G|---------------------------------------------------------------------------|
D|---------------------------------------------------------------------------|
A|---------------------------------------------------------------------------|
E|---------------------------------------------------------------------------|

e|------------------------12h13p12---------17~---15~---13p12h13--------------|
B|---------10b---------------------13--/15-----------------------------------|
G|--7--9~-------10~----------------------------------------------------------|
D|---------------------------------------------------------------------------|
A|---------------------------------------------------------------------------|
E|---------------------------------------------------------------------------|

The "10b" is just supposed to be a really quick slight bend. If you listen to the song you'll know what
I mean. The bend isn't necessary I guess, but I like to do it.

By the way, it would be pretty cool if you took the time to rate it, or even comment on it, just so I can get an idea of how good this tab is.


************************************

| /   slide up
| \   slide down
| h   hammer-on
| p   pull-off
| ~   vibrato
| +   harmonic
| x   Mute note
| b   Bend
| pb  Pre-bend
| br  Bend release
| pbr Pre-bend release
| brb Bend release bend

************************************
Добавлено: 15.04.2016
Другие материалы по этой песне:
  • Аккорды и текст

Страница создана 15.04.2016
http://primanota.ru/misc-computer-games/witcher-3-spikeroog-chords.htm
Привет, Гость.
Предлагаем пройти революционный курс по гитаре.
Подарок от PrimaNota.Ru, забирай!