PrimaNota.ru - самый крупный в мире бесплатный архив песенных текстов, аккордов, табулатур и нот


Misc Computer Games - Toontown - Cog Building Music - таба, видео

Регистрация Запомнить меня
Войти через:  Facebook Google Twitter Vk Yandex Mail.ru

Misc Computer Games - Toontown - Cog Building Music - таба, видео

Печатать
Просмотров: 77
(/) Slide Up  (\) Slide Down  (h) Hammer On  (p) Pull Off  (b) Bend (r) Release (v) Vibrato

Stave 1:

E|----------------------------------------------------|
B|----------------------------------------------------|
G|----------------------------------------------------|
D|------------------------------------------------5\1-|
A|-2-2-2-2----6h5-6h5-6h5-8\2-2-2-2-2-6h5-6h5-6h5-----|
E|----------------------------------------------------|

Stave 2:

E|-----------------------------------------|--------------|
B|-----------------------------------------|--------------|
G|-----------------------------------------|--------------|
D|-----------------------------------------|--------------|
A|-3p6p3-2p5p2-8p5-8p5-7p4-7p4-3p6p3-2p5p2-|--------------|
E|-----------------------------------------|-3h4h5h6h7p3--|

Stave 3:

E|-----------------------------------------|-----------|
B|-----------------------------------------|-----------|
G|-----------------------------------------|-----------|
D|-----------------------------------------|-5p3p2-----|
A|-3p6p3-2p5p2-8p5-8p5-7p4-7p4-3p6p3-2p5p2-|-------5p3-|
E|-----------------------------------------|-----------|

Stave 4:

E|-----------------------------------------------------------------|
B|-8-8-8-7-7-7-7-6-6-6-6-5-5-6-6-6-5-5-5-5-4-4-4-4-3-3-------------|
G|-----------------------------------------------------------------|
D|-----------------------------------------------------------------|
A|-----------------------------------------------------------------|
E|-----------------------------------------------------------------|

Stave 5:

E|-------------------------------------------------------|
B|-------------------------------------------------------|
G|-5p8p5-4p7p4-10p7-10p7-9p6-9p6-5p8p5-4p7p4-------------|
D|-------------------------------------------5h6h7h8h9p5-|
A|-------------------------------------------------------|
E|-------------------------------------------------------|

Stave 6:

E|-----------------------------------------------------|
B|-------------------------------------------8p6-------|
G|-5p8p5-4p7p4-10p7-10p7-9p6-9p6-5p8p5-4p7p4-----9p7p5-|
D|-----------------------------------------------------|
A|-----------------------------------------------------|
E|-----------------------------------------------------|
Добавлено: 15.04.2016
Другие материалы по этой песне:
  • Аккорды и текст

Страница создана 15.04.2016
http://primanota.ru/misc-computer-games/toontown-cog-building-music-chords.htm
Привет, Гость.
Предлагаем пройти революционный курс по гитаре.
Подарок от PrimaNota.Ru, забирай!