PrimaNota.ru - самый крупный в мире бесплатный архив песенных текстов, аккордов, табулатур и нот


Misc Computer Games - Undertale - Home - таба, видео

Регистрация Запомнить меня
Войти через:  Facebook Google Twitter Vk Yandex Mail.ru

Misc Computer Games - Undertale - Home - таба, видео

Печатать
Просмотров: 318
-------------------------------------------------------------------------------
                             Home - Undertale
-------------------------------------------------------------------------------
Tabbed by: Katie Wright
E-mail:

This tab is based off the tune home from the game Undertale. This is only the
introduction but it also works throughout the whole song.

Tuning: STANDARD

e|---------------------------------0-----------------------------------------|
B|---------0-------0----------------------0----------0-------0---------0-----|
G|-------2------2-------------2--------2----------2-------2----------2-------|
D|-----2------2------------2--------2----------2-------2----------2----------|
A|---0------------------4-------------------3--------------------------------|
E|---------------------------------------------------------------------------|

e|---------0------------------------------------------------------0----------|
B|----------------------0-------0-----------0-------0---------------------0--|
G|------2------------2-------2-----------2-------2------------2--------2-----|
D|---2------------2-------2-----------2-------2--------0---2--------2--------|
A|-------------0------------------4------------------------------------------|
E|---------------------------------------------------------------------------|

e|---5---4---0---------------------------------------------------------------|
B|---------------------0-----------------0--------0-----------0-------0------|
G|-----------------2------2-----------2--------2-----------2-------2---------|
D|---------------------------------2-------2------------2-------2------------|
A|-----------------------------0--------------------4------------------------|
E|---------------------------------------------------------------------------|

e|----------------0--------------------------0-------------------------------|
B|------------0------0--------------------------0-----------------0----------|
G|---------2------------2----------2----2----------2-----------2-------------|
D|------2-----------------------2---------------------------2----------------|
A|--3------------------------3----------2---------------0--------------------|
E|---------------------------------------------------------------------------|

e|---------0----------0---------------------------------------------0--------|
B|-------------------------3--2---------------0------0-----------------------|
G|------2---------2--------------2----------2------2-----2------2------------|
D|---2---------2-------------------------2------2------------2---------------|
A|----------4-------------------------3------------------3----------2--------|
E|---------------------------------------------------------------------------|

************************************

| /   slide up
| \   slide down
| h   hammer-on
| p   pull-off
| ~   vibrato
| +   harmonic
| x   Mute note
| b   Bend
| pb  Pre-bend
| br  Bend release
| pbr Pre-bend release
| brb Bend release bend

************************************
Добавлено: 15.04.2016
Другие материалы по этой песне:
  • Аккорды и текст

Страница создана 15.04.2016
http://primanota.ru/misc-computer-games/undertale-home-chords.htm
Привет, Гость.
Предлагаем пройти революционный курс по гитаре.
Подарок от PrimaNota.Ru, забирай!