PrimaNota.ru - самый крупный в мире бесплатный архив песенных текстов, аккордов, табулатур и нот


Misc Computer Games - World Of Warcraft - Wotlk Grizzly Hills Day Music - таба, видео

Регистрация Запомнить меня
Войти через:  Facebook Google Twitter Vk Yandex Mail.ru

Misc Computer Games - World Of Warcraft - Wotlk Grizzly Hills Day Music - таба, видео

Печатать
Просмотров: 78
Tabbed from listening to the original song (here): https://www.youtube.com/watch?v=mpyInx0ldfo&feature=youtu.be

Here's a video of me playing this tab: https://www.youtube.com/watch?v=oLqKMQ6H4DM

From 0:18 - 1:44

----2--3/5--2h3h2-0-3--2--3-2h3h2------2--3-2h3h2------|
----------------------------------3-3/5---------3-3/5--|
--2-2--------------------------------------------------|
----0--------------------------------------------------|
-------------------------------------------------------|
-------------------------------------------------------|


-2-0--3-2-0-----2-2h3-2--3-2-3-2-3-5/7-3---------------|
--------------3--------------------------3/5-----------|
-------------------------------------------------------|
-------------------------------------------------------|
-------------------------------------------------------|
-------------------------------------------------------|

                   ,
----------------------3-2-5-3-5/7----7-5-7-9-10--------|
---5h7h5--3-2-2h3---------------8----8-8-8-8-8---------|
-----------------------------------------------7-------|
-------------------------------------------------------|
-------------------------------------------------------|
-------------------------------------------------------|


-----0-------------0-----------------------------------|
--7--5--7/8-7---7--5--7/8-7---5h7-5-7h8--7-8-10-12-10--|
--7--7--7---7---7--7--7---7----------------------------|
----------------7--------------------------------------|
-------------------------------------------------------|
-------------------------------------------------------|


---9-10------------------------------------------------|
12------10-7---7h8h7-5--3--3/5----7-7h8-7h8-7----------|
-------------------------------------------------------|
-------------------------------------------------------|
-------------------------------------------------------|
-------------------------------------------------------|


--------------------------------------------9-9h10-10-10-|
--8-7-3-3h5-3---8-8---10 10/12--10h12h10-12--------------|
---------------------------------------------------------|
---------------------------------------------------------|
---------------------------------------------------------|
---------------------------------------------------------|

----------9-9h10-10-10-10-9--10h9-----------------------|
-10-10h12-------------------------10-10/12--10h12h10-10-|
--------------------------------------------------------|
--------------------------------------------------------|
--------------------------------------------------------|
--------------------------------------------------------|

---------------------2--5-5/7--9-9/10--10h12h10-9-9h10-|
-8-7-5----5-3-5-7-3------------------------------------|
------------------2------------------------------------|
------------------0------------------------------------|
-------------------------------------------------------|
-------------------------------------------------------|
Добавлено: 19.04.2016
Другие материалы по этой песне:
  • Аккорды и текст

Страница создана 19.04.2016
http://primanota.ru/misc-computer-games/world-of-warcraft-wotlk-grizzly-hills-day-music-chords.htm
Привет, Гость.
Предлагаем пройти революционный курс по гитаре.
Подарок от PrimaNota.Ru, забирай!