PrimaNota.ru - самый крупный в мире бесплатный архив песенных текстов, аккордов, табулатур и нот


Misc Computer Games - Trails In The Sky - The Whereabouts Of Light - таба, видео

Регистрация Запомнить меня
Войти через:  Facebook Google Twitter Vk Yandex Mail.ru

Misc Computer Games - Trails In The Sky - The Whereabouts Of Light - таба, видео

Печатать
Просмотров: 113
Уроки эстрадного вокала в Санкт-Петербурге
(ENG)The Legend of Heroes - Trails in the Sky FC: The Whereabouts of Light (or Stars)
(JAP)Eiyuu Densetsu - Sora no Kiseki FC: Hoshi no Arika

Heavily based on https://www.youtube.com/watch?v=Np2aa_qGwcc with minor change

Capo 4
Tuning: Drop D (DADGBE)

(intro)
0:00 - 0:13                    A.H
e|-------------------------------------------------------------------------------|
B|----0-1--0--------------------3*-----------------------------------------------|
G|--2---------2--0---------------------------------------------------------------|
D|--------2-----------2----0-----------------------------------------------------|
A|------0-----------3----3-------------------------------------------------------|
D|---------------2---------3-----------------------------------------------------|

e|------------------------------0---------------------------------------==-------|
B|----0-1---0-------------------0-----0------------------------------------------|
G|--2----------2--0-------------2-2-2---1----------------------------------------|
D|-------------------2----0------------------------------------------------------|
A|--------3-------3-----3--------------------------------------------------------|
D|------3-----------------0-----2------------------------------------------------|


(verse 1)
0:14 - 0:26
e|--------0-----------------------------------------0----------------------------|
B|--1-0-1---0-----------1------------1-0--------0-1---3--------------------------|
G|----------------2-0-2---0---------------0---2----------------------------------|
D|-----------------------------3-2-3------2--------------------------------------|
A|--0---------------------3--------0---------------------------------------------|
D|----------2-----3------------0-------2------3-------5--------------------------|

0:27 - 0:38
e|--------0-----------------0------0-1-0-------0-------------0-------------------|
B|--1-0-1---0---------0---3-----1--------3-1-0-----0-----1-----------------------|
G|----------------0-2---5-----0------------------1---2---------------------------|
D|------2----------------------------0-----------------2---2---------------------|
A|--0-----------2-----------3--------------------2---0---------------------------|
D|----------2-------3---5--------------------2-----------------------------------|


(verse 2)
0:39 - 1:03
e|--------0---------------------------------------------------0------------------|
B|--1-0-1---0--------------1-----1-----------1-0----------0-1---3----------------|
G|--2----------------2-0-2---0---------------------0----2-----------0------------|
D|------2-------2--------------2---2---3-2-3-------2--------------0---0----------|
A|--0---------2---2------3---3-------------0-----2---2------3--------------------|
D|----------2--------3-----------------0-------2--------3-------5----------------|

e|--------0-----------------0------0-1-0-------0-------------0-------------------|
B|--1-0-1---0---------0---3-----1--------3-1-0-----0-----1-------1---------------|
G|--2-----------0-0-2---5-----0----------2-------1---2---------------------------|
D|------2-------2--------------------0-----------------2---2---2---2-------------|
A|--0---------2-------------3--------------------2---0---------------------------|
D|----------2-------3---5--------------------2-----------------------------------|


(pre-chorus)
1:03 - 1:26
e|----------0-------3---------------------------------------0--------------------|
B|------1-------3-------6---5---3---0---------0-1-------1-------1----------------|
G|----2---2---2---2---0---0---0---0---------------2---------------2--------------|
D|--3-----------------------------------2-------------2---2---2------------------|
A|------------------------------------2---2---------0----------------------------|
D|------------------5---------------2-------2------------------------------------|

e|----------------------------1---0----------------------------------------------|
B|------------1-----0---1---3--------------------------0-----0-------------------|
G|------0---2---------0---0-----0----2-----2--1-----1----------3-----------------|
D|--3------------------------------------2--------2--------4---------------------|
A|----3---3-----3----------------------2--------2--------4-----------------------|
D|--3---------------0----------------2--------2--------4-------4-----------------|


Capo 6

(chorus)
1:27 - 1:50~
e|--------0---------------------------------------------------0------------------|
B|--1-0-1---0--------------1-----1-----------1-0----------0-1---3----------------|
G|--2----------------2-0-2---0---------------------0----2-----------0------------|
D|------2-------2--------------2---2---3-2-3-------2--------------0---0----------|
A|--0---------2---2------3---3-------------0-----2---2------3--------------------|
D|----------2--------3-----------------0-------2--------3-------5----------------|

e|----------0---0-3--1-0------0------0-1-0------0--------------------------------|
B|--1-0-1-3--------------3--------1--------3-1----3--1-0-0-----------------------|
G|--2----------------------5----0----------2------------------2-2----------------|
D|------2-------2----------------------0--------------------2------2-------------|
A|--0---------2---------------3----------------------2---0------0----------------|
D|----------2--------3---5----------------------2--------------------------------|


(additional chorus)
e|--------0---------------------------------------------------0------------------|
B|--1-0-1---0--------------1-----1-----------1-0----------0-1---3----------------|
G|--2----------------2-0-2---0---------------------0----2-----------0------------|
D|------2-------2--------------2---2---3-2-3-------2--------------0---0----------|
A|--0---------2---2------3---3-------------0-----2---2------3--------------------|
D|----------2--------3-----------------0-------2--------3-------5----------------|

e|----------0---0-3--1-0------0------0-1-0------0--------------------------------|
B|--1-0-1-3--------------3--------1--------3-1----3--1-0-0-----------------------|
G|--2----------------------5----0----------2------------------2-2----------------|
D|------2-------2----------------------0--------------------2------2-------------|
A|--0---------2---------------3----------------------2---0------0----------------|
D|----------2--------3---5----------------------2--------------------------------|

e|----------0---0-3--1-0------0---------|
B|--1-0-1-3--------------3--------1-----|
G|--2----------------------5----0-------|
D|------2-------2-----------------------|
A|--0---------2---------------3---------|
D|----------2--------3---5--------------|


(outro)(slow)
~2:11
e|--0--1--0--------0----------------------------------------|
B|-----------3--1-----3--1--0-------1-----------------------|
G|----------------------------------------2--2--------------|
D|-----0-------------------------2------2----2--------------|
A|----------------------------0-------0------0--------------|
D|-----------------2----------------------------------------|


A.H / *   Artificial Harmonic




************************************************************************************************************
Easy Short Harmonica Version
************************************************************************************************************

No Capo
Standard Tuning
https://www.youtube.com/watch?v=U_Hyimulhu0&list=PLzFTGYa_evXiFcB4WdZa3D0TD5yZwe6Vi&index=2

e|--11---10---11---15---10-------------------11--------------------|
B|-----------------------------13---11---13------11----------------|
G|-----------------------------------------------------------------|
D|-----------------------------------------------------------------|
A|-----------------------------------------------------------------|
E|-----------------------------------------------------------------|

e|-------------11---10------------8---10---11---15---13------------|
B|--9---8---9------------11----------------------------------------|
G|-----------------------------------------------------------------|
D|-----------------------------------------------------------------|
A|-----------------------------------------------------------------|
E|-----------------------------------------------------------------|

e|--11---10---11---15---10--------8---10---11---13---15---15-------|
B|--------------------------11-------------------------------------|
G|-----------------------------------------------------------------|
D|-----------------------------------------------------------------|
A|-----------------------------------------------------------------|
E|-----------------------------------------------------------------|

e|--16---15---13---11---10---15------10----------------------------|
B|-------------------------------12------13------------------------|
G|-----------------------------------------------------------------|
D|-----------------------------------------------------------------|
A|-----------------------------------------------------------------|
E|-----------------------------------------------------------------|




Добавлено: 15.04.2016
Другие материалы по этой песне:
  • Аккорды и текст

Страница создана 15.04.2016
http://primanota.ru/misc-computer-games/trails-in-sky-whereabouts-of-light-chords.htm
Привет, Гость.
Предлагаем пройти революционный курс по гитаре.
Подарок от PrimaNota.Ru, забирай!