PrimaNota.ru - самый крупный в мире бесплатный архив песенных текстов, аккордов, табулатур и нот


Misc Computer Games - Undertale - Hotel - бас-таба, видео

Регистрация Запомнить меня
Войти через:  Facebook Google Twitter Vk Yandex Mail.ru

Misc Computer Games - Undertale - Hotel - бас-таба, видео

Печатать
Просмотров: 87
Undertale - Hotel

Tabbed by: Ashy (XxThreeCheersxX)
E-mail: burdickash@gmail.com

Tuning: Standard

2 Note Pickup:
G|-------|
D|-5--7--|
A|-------|
E|-------|

Part I
G|-------------------------------|
D|-7----7------7----7----7----9--|
A|--------7----------------7-----| x 2
E|-------------------------------|

G|-------------------------------------------------7-----|
D|-5----5------5----5----5----7--7----9-----10-----------|
A|--------5----------------5-----------------------------|
E|-------------------------------------------------------|

Part II
G|-------------------------------|
D|-7----7------7----7----7----9--|
A|--------7----------------7-----| x 2
E|-------------------------------|

G|---------------------------------------------------------------|
D|-5----5------5----5----5----7--5----5------5----5----5------5--|
A|--------5----------------5------------5-------------------5----|
E|---------------------------------------------------------------|

Play Part I again

Part III
G|-5----5------5----5----5----5--5----5------5----5----5----5--|
D|--------5----------------5------------4----------------4-----|
A|-------------------------------------------------------------|
E|-------------------------------------------------------------|

G|-4----4------4----4----4----4--4----4------4----4----4----4--|
D|--------4----------------4------------3----------------3-----|
A|-------------------------------------------------------------|
E|-------------------------------------------------------------|

G|-------------------------------------------------------------|
D|-7----7------7----7----7----7--7----7------7----7----7----7--|
A|--------7----------------7------------6----------------6-----|
E|-------------------------------------------------------------|

G|-------------------------------------------------------------|
D|-5----5------5----5----5----7--5----5------5----5----5-----7-|
A|--------5----------------5------------5----------------5-----|
E|-------------------------------------------------------------|

G|-5----5------5----5----5----5--5----5------5----5----5----5--|
D|--------5----------------5------------4----------------4-----|
A|-------------------------------------------------------------|
E|-------------------------------------------------------------|

G|-4----4------4----4----4----4--9----9--------9----9----------|
D|--------4----------------4------------9----9---------10--7---|
A|-------------------------------------------------------------|
E|-------------------------------------------------------------|

G|-------------------------------------------------------------|
D|-7----7------7----7----7----7--7----7------7----7----7----7--|
A|--------7----------------7------------6----------------6-----|
E|-------------------------------------------------------------|

G|-------------------------------------------------------------|
D|-5----5------5----5----5----7--5----5------5----5----5-----7-|
A|--------5----------------5------------5----------------5-----|
E|-------------------------------------------------------------|

Happy playing!

| /  slide up
| \  slide down
| h  hammer-on
| p  pull-off
| ~  vibrato
| +  harmonic
| x  Mute note
===============================================================================
Добавлено: 18.02.2016
Другие материалы по этой песне:
  • Аккорды и текст

Страница создана 18.02.2016
http://primanota.ru/misc-computer-games/undertale-hotel-chords.htm
Привет, Гость.
Предлагаем пройти революционный курс по гитаре.
Подарок от PrimaNota.Ru, забирай!