PrimaNota.ru - самый крупный в мире бесплатный архив песенных текстов, аккордов, табулатур и нот


Misc Computer Games - Undertale - Metal Crusher - бас-таба, видео

Регистрация Запомнить меня
Войти через:  Facebook Google Twitter Vk Yandex Mail.ru

Misc Computer Games - Undertale - Metal Crusher - бас-таба, видео

Печатать
Просмотров: 317
Уроки эстрадного вокала в Санкт-Петербурге
Undertale - Metal Crusher

Tabbed by: Ashy (XxThreeCheersxX)
E-mail: burdickash@gmail.com

Tuning: Drop Db

Part I
Gb|---------------------------------|
Db|---------2---------------2-------|
Ab|-----------------0-0-0-0---0-0-0-| x 8
Db|-2-2-2-2---2-2-2-----------------|

Part II
Gb|-----------------------------------------------------------------|
Db|---------3---------------3---------------2---------------2-------|
Ab|-----------------------------------------------------------------|
Db|-3-3-3-3---3-3-3-3-3-3-3---3-3-3-2-2-2-2---2-2-2-2-2-2-2---2-2-2-|

Gb|-----------------------------------------------------|
Db|---------0---------------2---------------------------|
Ab|---------------------------------0----2----3---------|
Db|-0-0-0-0---0-0-0-2-2-2-2---2-2-2---------------------|

Gb|-----------------------------------------------------------------|
Db|---------3---------------3---------------2---------------2-------|
Ab|-----------------------------------------------------------------|
Db|-3-3-3-3---3-3-3-3-3-3-3---3-3-3-2-2-2-2---2-2-2-2-2-2-2---2-2-2-|

Gb|-----------------------------------------------------|
Db|---------0---------------0---------------------------|
Ab|-----------------------------------------------------|
Db|-0-0-0-0---0-0-0-0-0-0-0---0-0-0-2----2----2---------|

Part I

Part III (outro)
Gb|---------------------------------|
Db|---------2---------------2-------|
Ab|-----------------0-0-0-0---0-0-0-| x 3
Db|-2-2-2-2---2-2-2-----------------|

Gb|-------------------------2-------|
Db|---------2-----------------------|
Ab|-----------------0-0-0-0---------|
Db|-2-2-2-2---2-2-2-----------------|

Happy playing!

| /  slide up
| \  slide down
| h  hammer-on
| p  pull-off
| ~  vibrato
| +  harmonic
| x  Mute note
===============================================================================
Добавлено: 05.03.2016
Другие материалы по этой песне:
  • Аккорды и текст

Страница создана 05.03.2016
http://primanota.ru/misc-computer-games/undertale-metal-crusher-chords.htm
Привет, Гость.
Предлагаем пройти революционный курс по гитаре.
Подарок от PrimaNota.Ru, забирай!