PrimaNota.ru - самый крупный в мире бесплатный архив песенных текстов, аккордов, табулатур и нот


Misc Computer Games - Undertale - Once Upon A Time - бас-таба, видео

Регистрация Запомнить меня
Войти через:  Facebook Google Twitter Vk Yandex Mail.ru

Misc Computer Games - Undertale - Once Upon A Time - бас-таба, видео

Печатать
Просмотров: 221
-------------------------------------------------------------------------------
                             ONCE UPON A TIME - Undertale (Composed by Toby Fox)
-------------------------------------------------------------------------------
Tabbed by: rumdrools

Tuning: Standard

This is the melody tabbed for solo play, not the bassline.

Slides can either be played as a slide or as hammer ons/pull offs (1h2h3 and 9-8p7p5 for the first and second 
slide respectively) depending on how fast your fingering is.

G|---5----------5----------5-7-5-----|
D|------5-----3----------3-------5-3-|
A|-3--------------3----3-------------|
E|-----------------------------------| REPEAT

G|------5-2-----------9-8\5-----5-2-------2-------------|
D|----------5-3-2-3-5---------------5-3-5---2-5-5-3-2-5-|
A|-1/3------------------------5-------------------------|
E|------------------------------------------------------| REPEAT

G|-5------------------------3-2-------|
D|----3-5-3----3-5-3----3-5-----5-3---|
A|-----------2-------1--------------3-|
E|------------------------------------| REPEAT x2


| /  slide up
| \  slide down
===============================================================================
Добавлено: 05.03.2016
Другие материалы по этой песне:
  • Аккорды и текст

Страница создана 05.03.2016
http://primanota.ru/misc-computer-games/undertale-once-upon-a-time-chords.htm
Привет, Гость.
Предлагаем пройти революционный курс по гитаре.
Подарок от PrimaNota.Ru, забирай!