PrimaNota.ru - самый крупный в мире бесплатный архив песенных текстов, аккордов, табулатур и нот


Misc Computer Games - Undertale - Once Upon A Time - таба, бас-таба, видео

Регистрация Запомнить меня
Войти через:  Facebook Google Twitter Vk Yandex Mail.ru

Misc Computer Games - Undertale - Once Upon A Time - таба, бас-таба, видео

Печатать
Просмотров: 560
Уроки эстрадного вокала в Санкт-Петербурге
e|-3-----15---10----------|-8-----15---3-----------|-3-----8----15---17--------|-15----10---8-----------|
B|------------------------|------------------------|---------------------------|------------------------|
G|------------------------|------------------------|---------------------------|------------------------|
D|------------------------|------------------------|---------------------------|------------------------|
A|------------------------|------------------------|---------------------------|------------------------|
E|------------------------|------------------------|---------------------------|------------------------|

e|-3-----15---10----------|-8-----15---3-----------|-3-----8----15---17--------|-15----10---8-------------|
B|------------------------|------------------------|---------------------------|--------------------------|
G|------------------------|------------------------|---------------------------|--------------------------|
D|------------------------|------------------------|---------------------------|--------------------------|
A|------------------------|------------------------|---------------------------|--------------------------|
E|------------------------|------------------------|---------------------------|--------------------------|

e|------------3-----0-----------------------|------------7------6-5--3---------------------|
B|------------------------3-----1---0---1---|-3--------------------------------------------|
G|-0----------------------------------------|----------------------------------------------|
D|------------------------------------------|----------------------------------------------|
A|------------------------------------------|----------------------------------------------|
E|------------------------------------------|----------------------------------------------|

e|------------3-----0-------------------0-----|--------------------------------------|
B|------------------------3-----1---3---------|-0----------3---------3---1---0---1---|
G|-2------------------------------------------|--------------------------------------|
D|--------------------------------------------|--------------------------------------|
A|--------------------------------------------|--------------------------------------|
E|--------------------------------------------|--------------------------------------|

e|------------3-----0-----------------------|------------7------6-5--3---------------------|
B|------------------------3-----1---0---1---|-3--------------------------------------------|
G|-0----------------------------------------|----------------------------------------------|
D|------------------------------------------|----------------------------------------------|
A|------------------------------------------|----------------------------------------------|
E|------------------------------------------|----------------------------------------------|

e|------------3-----0-------------------0-----|----------------------------------------|
B|------------------------3-----1---3---------|-0----------3---------3---1---0---1-----|
G|-2------------------------------------------|----------------------------------------|
D|--------------------------------------------|----------------------------------------|
A|--------------------------------------------|----------------------------------------|
E|--------------------------------------------|----------------------------------------|

e|-15---8-----10----8-----2---8-----10----8-----|-1----8-----10----13----12--10----8-----3-----|
B|----------------------------------------------|----------------------------------------------|
G|----------------------------------------------|----------------------------------------------|
D|----------------------------------------------|----------------------------------------------|
A|----------------------------------------------|----------------------------------------------|
E|----------------------------------------------|----------------------------------------------|

e|-15---8-----10----8-----2---8-----10----8-----|-1----8-----10----13----12--10----8-----3-----|
B|----------------------------------------------|----------------------------------------------|
G|----------------------------------------------|----------------------------------------------|
D|----------------------------------------------|----------------------------------------------|
A|----------------------------------------------|----------------------------------------------|
E|----------------------------------------------|----------------------------------------------|

e|-15---8-----10----8-----2-----8-----10----8-----|-1----8-----10----13----12----10----8-----3-----|
B|------------------------------------------------|------------------------------------------------|
G|------------------------------------------------|------------------------------------------------|
D|------------------------------------------------|------------------------------------------------|
A|------------------------------------------------|------------------------------------------------|
E|------------------------------------------------|------------------------------------------------|

e|-15---8-----10----8-----2-----8-----10----8-----|-1----8-----10----13----12----10----8-----3-----|
B|------------------------------------------------|------------------------------------------------|
G|------------------------------------------------|------------------------------------------------|
D|------------------------------------------------|------------------------------------------------|
A|------------------------------------------------|------------------------------------------------|
E|------------------------------------------------|------------------------------------------------|
Добавлено: 26.10.2017
Другие материалы по этой песне:
  • Аккорды и текст

Страница создана 05.03.2016
http://primanota.ru/misc-computer-games/undertale-once-upon-a-time-chords.htm
Привет, Гость.
Предлагаем пройти революционный курс по гитаре.
Подарок от PrimaNota.Ru, забирай!