PrimaNota.ru - самый крупный в мире бесплатный архив песенных текстов, аккордов, табулатур и нот


Misc Computer Games - Undertale - Song That Might Play When You Fight Sans - бас-таба, видео

Регистрация Запомнить меня
Войти через:  Facebook Google Twitter Vk Yandex Mail.ru

Misc Computer Games - Undertale - Song That Might Play When You Fight Sans - бас-таба, видео

Печатать
Просмотров: 195
Undertale - Song That Might Play When You Fight Sans

Tabbed by: Ashy (XxThreeCheersxX)
E-mail: burdickash@gmail.com

Tuning: BEADG

Note: I tabbed this out for five string because it's easiest; if you don't have a 5 sting, just tune to BEAD

Part I
G|---------------------------------------------------------------------|
D|---------------------------------------------------------------------|
A|---------------------------------3-3-3-3-3-3-3-3-3-3x----4x----5x----|
E|-3-3-3-3-3-3-3-3-3-3-3-3-3-3-3-3-------------------------------------|
B|---------------------------------------------------------------------|

G|---------------------------------------------------------------------|
D|---------------------------------------------------------------------|
A|---------------------------------3-3-3-3-3-3-3-3-3-3x----4x----------|
E|-3-3-3-3-3-3-3-3-3-3-3-3-3-3-3-3-------------------------------------|
B|---------------------------------------------------------------3x----|

Part II
G|--------------------------------------------------------------------------------|
D|--------------------------------------------------------------------------------|
A|--------------------------------------------------------------------------------|
E|--------------------------------------------------------------------------------|
B|-4----4----3----3----2----2----1----1----4----4----3----3----2----2----1--------|

Repeat Parts I and II

Part III (repeat until end)
G|-------------------------------------------------------------------------|
D|-------------------------------------------------------------------------|
A|-------------------------------------3-3----3----------3-3----3----------|
E|-3-3----3----------3-3----3-------------------3-3----3----------3-3----3-|
B|----------3-3----3----------3-3----3-------------------------------------|


| /  slide up
| \  slide down
| h  hammer-on
| p  pull-off
| ~  vibrato
| +  harmonic
| x  Mute note
===============================================================================
Добавлено: 05.03.2016
Другие материалы по этой песне:
  • Аккорды и текст

Страница создана 05.03.2016
http://primanota.ru/misc-computer-games/undertale-song-that-might-play-when-you-fight-sans-chords.htm
Привет, Гость.
Предлагаем пройти революционный курс по гитаре.
Подарок от PrimaNota.Ru, забирай!