PrimaNota.ru - самый крупный в мире бесплатный архив песенных текстов, аккордов, табулатур и нот


Misc Computer Games - Undertale - Its Raining Somewhere Else - таба, бас-таба, видео

Регистрация Запомнить меня
Войти через:  Facebook Google Twitter Vk Yandex Mail.ru

Misc Computer Games - Undertale - Its Raining Somewhere Else - таба, бас-таба, видео

Печатать
Просмотров: 289
Уроки эстрадного вокала в Санкт-Петербурге
Title: It's Raining Somewhere Else
SubTitle: Undertale OST 63
Tempo = 96
Acoustic Fingerstyle Guitar
Arranged by Robert Wang

Audio/Video of Tab: https://youtu.be/nQNqezpbaqs



e|-------|-------|-------|-------|-------|-------|-------|-------|
B|--3L---|--3----|--2L---|--2----|--1L---|--1----|--0g---|--0g---|
G|--2L---|--2----|--2L---|--2----|--0L---|--0----|--0L---|--0----|
D|--4L---|--4----|--4L---|--4----|--2L---|--2----|--2L---|--2----|
A|--2L---|--2----|--2L---|--2----|--0L---|--0----|--2L---|--2----|
E|-------|-------|--2L---|--2----|-------|-------|--0L---|--0----|


e|----------------------------|-----5--2-------------------|
B|--3g----3--2--3-----0--2----|--3--------3-----2--0-------|
G|--2-------------------------|----------------------------|
D|----------------------------|-----------------------4----|
A|--2-------------------------|----------------------------|
E|----------------------------|----------------------------|


e|----------------------------|-----0----------------------|
B|--2g----2--0--2-------------|-----------2L-2-------------|
G|-----------------------1----|--2-------------------------|
D|--------------------4-------|----------------------------|
A|----------------------------|----------------------------|
E|--2-------------------------|----------------------------|


e|----------------------------|-----0----------------------|
B|--1g----1--0--1-------------|-----------1-----0-----0----|
G|--0-------------------------|--0-----------------2-------|
D|--------------------2--3----|----------------------------|
A|--0-------------------------|----------------------------|
E|----------------------------|----------------------------|


e|--0g-------2--3--10----14L--|--14---||---------------------------|
B|-----------3--5--0-----0L---|--0----||-------3--2--3-----0--2----|
G|--0-------------------------|-------||o---------4----------------|
D|----------------------------|-------||o------------------4-------|
A|----------------------------|-------||-2-------------------------|
E|--0-------------------------|-------||---------------------------|


e|-----5--2-------------------|----------------------------|
B|--3--------3-----2--0-------|--------2--0--2-------------|
G|-----------4----------------|-----------------------1----|
D|--------------------2--4----|-----------4--------4-------|
A|--2-------------------------|--------------------4-------|
E|----------------------------|--2-------------------------|


e|-----0----------------------|----------------------------|
B|-----------2----------------|--------1--0--1-------------|
G|--2-------------------------|-----------2----------------|
D|-----------4-----------0----|--------------------2--3----|
A|--------------------4-------|--0-------------------------|
E|--2-------------------------|----------------------------|


e|-----0----------------------|--0g-------2--3--10----14---|
B|-----------1-----0-----0----|-----------3--0--0-----0----|
G|--0--------2--------2-------|--0-----------------0-------|
D|--------------------2-------|-----------2----------------|
A|--0--------------------0----|----------------------------|
E|----------------------------|--0-------------------------|


e|---------------------------||----------------------------|
B|---------------------------||--------2--3--2-----2--3----|
G|--------------------------o||-----------4-----2----------|
D|-----------2-----------0--o||--------------------4-------|
A|--------------------2------||--2-------------------------|
E|--0------------------------||----------------------------|


e|-----------0--------2-------|--------------5--4--0-------|
B|--2-----3-------------------|--2--------------------2----|
G|-----------4----------------|-----------2----------------|
D|--------------------2--4----|-----------4----------------|
A|--2-------------------------|--------------------4-------|
E|----------------------------|--2-------------------------|


e|----------------------------|----------------------------|
B|--0-------------------------|--------1--3--1-----1--3----|
G|----------------------------|-----------2-----2----------|
D|-----------4-----------0----|--------------------2-------|
A|--------------------4-------|--0-------------------------|
E|--2-------------------------|----------------------------|


e|--0-----1--0L-0-----1-------|----------------------------|
B|----------------------------|--3-----------0-----0--3----|
G|-----------2----------------|-----------0-----0----------|
D|--------------------2-------|-----------2----------------|
A|--0--------------------0----|--------------------2-------|
E|----------------------------|--0-------------------------|


e|--3-------------------------|
B|--3-------------------------|
G|--0-------------------------|
D|-----------2-----------0----|
A|--------------------2-------|
E|--0-------------------------|


e|--1-------------------------------------------------|----------------|
B|--0-----------------------0-------------------------|----------------|
G|--0--------------------------------2----------------|----------------|
D|--------------------------------------------4-------|--2--0--2--4----|
A|----------------------------------------------------|----------------|
E|--3-------------------------------------------------|--2-------------|


e|----------------------------------------------------|
B|-----------------------------------0----------------|
G|--0-----------------------------------------2--0----|
D|--2-----------------------2-------------------------|
A|--3-------------------------------------------------|
E|----------------------------------------------------|


e|----------------------------------------------------|-------|--3----|--2----|
B|----------------------------------------------------|-------|--1----|--4----|
G|--2-----------------------------------------0-------|-------|--0----|-------|
D|--2-----------------------------------4--------4----|--2----|-------|--4----|
A|----------------------------------------------------|--0----|--0----|--0----|
E|--0-------------------------------------------------|-------|-------|-------|


e|--2----||---------------------------|-----5--2-------------------|
B|--4----||-------3--2--3-----0--2----|--3--------3-----2--0-------|
G|-------||o---------4----------------|-----------4----------------|
D|-------||o------------------4-------|--------------------2--4----|
A|--0----||-2-------------------------|--2-------------------------|
E|-------||---------------------------|----------------------------|


e|----------------------------|-----0----------------------|
B|--------2--0--2-------------|-----------2----------------|
G|-----------------------1----|--2-------------------------|
D|-----------4--------4-------|-----------4-----------0----|
A|--------------------4-------|--------------------4-------|
E|--2-------------------------|--2-------------------------|


e|----------------------------|-----0----------------------|
B|--------1--0--1-------------|-----------1-----0-----0----|
G|-----------2----------------|--0--------2--------2-------|
D|--------------------2--3----|--------------------2-------|
A|--0-------------------------|--0--------------------0----|
E|----------------------------|----------------------------|


e|--0g-------2--3--10----14---|---------------------------||
B|-----------3--0--0-----0----|---------------------------||
G|--0-----------------0-------|--------------------------o||
D|-----------2----------------|-----------2-----------0--o||
A|----------------------------|--------------------2------||
E|--0-------------------------|--0------------------------||


e|--0g-------2--3--10---------|--14---||
B|-----------3--0--0----------|--0----||
G|--0-----------0-------------|--0----||
D|----------------------------|-------||
A|----------------------------|-------||
E|--0--------0-----0----------|--0----||



************************
L - tied note
g - ghost note
************************
Добавлено: 26.10.2017
Другие материалы по этой песне:
  • Аккорды и текст

Страница создана 18.02.2016
http://primanota.ru/misc-computer-games/undertale-its-raining-somewhere-else-chords.htm
Привет, Гость.
Предлагаем пройти революционный курс по гитаре.
Подарок от PrimaNota.Ru, забирай!