PrimaNota.ru - самый крупный в мире бесплатный архив песенных текстов, аккордов, табулатур и нот


Misc Computer Games - Undertale - Its Raining Somewhere Else - бас-таба, видео

Регистрация Запомнить меня
Войти через:  Facebook Google Twitter Vk Yandex Mail.ru

Misc Computer Games - Undertale - Its Raining Somewhere Else - бас-таба, видео

Печатать
Просмотров: 162
Уроки эстрадного вокала в Санкт-Петербурге
Undertale - It's Raining Somewhere Else

Tabbed by: Ashy (XxThreeCheersxX)
E-mail: burdickash@gmail.com

Tuning: Standard

Part I x 3
G|--------5------------------5---------------------------------------------------|
D|---------------5------------------3--5---------5------------------5------------|
A|-3------------------3---------------------------------5------------------5--6--|
E|----------------------------------------3------------------3-------------------|

G|-------------------------------------------------------------------------------|
D|--------8------------------8-------------------3------------------3---------1--|
A|---------------8------------------8-------------------3------------------3-----|
E|-6------------------6----------------8--1------------------1-------------------|

Part II
G|----------------------------------------------------------------------|
D|----------------------------------------------------------------------|
A|-----------------------------------4~---------------------------------|
E|-4~---------------3~---------------------------------1~---------------|

Part I x 1

Part III
G|--------5------------------5---------------------------------------------------|
D|---------------5------------------3--5---------5------------------5------------|
A|-3------------------3---------------------------------5------------------5--6--|
E|----------------------------------------3------------------3-------------------|

G|-------------------------------------------------------------------------------|
D|--------8------------------8--------------------3------------------------------|
A|---------------8------------------8----------3-----3---------------------------|
E|-6------------------6----------------8--1---------------1~---------------------|

Happy playing!

| /  slide up
| \  slide down
| h  hammer-on
| p  pull-off
| ~  vibrato
| +  harmonic
| x  Mute note
===============================================================================
Добавлено: 18.02.2016
Другие материалы по этой песне:
  • Аккорды и текст

Страница создана 18.02.2016
http://primanota.ru/misc-computer-games/undertale-its-raining-somewhere-else-chords.htm
Привет, Гость.
Предлагаем пройти революционный курс по гитаре.
Подарок от PrimaNota.Ru, забирай!