PrimaNota.ru - самый крупный в мире бесплатный архив песенных текстов, аккордов, табулатур и нот


Misc Computer Games - Undertale - Ghost Fight - бас-таба, видео

Регистрация Запомнить меня
Войти через:  Facebook Google Twitter Vk Yandex Mail.ru

Misc Computer Games - Undertale - Ghost Fight - бас-таба, видео

Печатать
Просмотров: 187
Undertale - Ghost Fight

Tabbed by: Ashy (XxThreeCheersxX)
E-mail: burdickash@gmail.com

Tuning: Half Step Down

(Play with a swing)

Part I 
Gb|-1--1-0--------------------1--1-0-----------1--0-----|
Db|---------4--3--2-------------------4--3--2--------1--|
Ab|------------------2--1--0----------------------------|
Eb|-----------------------------------------------------|
                                                          x 2
Gb|-1--1-0----------------------------------------------|
Db|---------4--3--2-------------------------1--3--5--1--|
Ab|------------------2--1--0--4--4-2--4--5--------------|
Eb|-----------------------------------------------------|

Gb|-1--1-0--------------------1--1-0-----------1--0-----|
Db|---------4--3--2-------------------4--3--2--------1--|
Ab|------------------2--1--0----------------------------|
Eb|-----------------------------------------------------|
                                   
Gb|-1--1-0---------------------------------------0--1---|
Db|---------4--3--2----------------------0--1--1--------|
Ab|------------------2--1--0--4--4-2--4-----------------|
Eb|-----------------------------------------------------|

Part II
Gb|-------------------------------------------------------------|
Db|-2--2-0-------------------2--6--6----4-------6--6----4-------|
Ab|---------2-------------2---------------6--4------------6--4--| x 4
Eb|------------3--0--0-3-------------4---------------4----------|

happy playing!

| /  slide up
| \  slide down
| h  hammer-on
| p  pull-off
| ~  vibrato
| +  harmonic
| x  Mute note
===============================================================================
Добавлено: 18.02.2016
Другие материалы по этой песне:
  • Аккорды и текст

Страница создана 18.02.2016
http://primanota.ru/misc-computer-games/undertale-ghost-fight-chords.htm
Привет, Гость.
Предлагаем пройти революционный курс по гитаре.
Подарок от PrimaNota.Ru, забирай!