PrimaNota.ru - самый крупный в мире бесплатный архив песенных текстов, аккордов, табулатур и нот


Misc Computer Games - Super Mario World - Bonus Screen - бас-таба, видео

Регистрация Запомнить меня
Войти через:  Facebook Google Twitter Vk Yandex Mail.ru

Misc Computer Games - Super Mario World - Bonus Screen - бас-таба, видео

Печатать
Просмотров: 51
Уроки эстрадного вокала в Санкт-Петербурге
Super Mario World - Bonus Screen

Tabbed by: Ash (XxThreeCheersxX)
email: burdickash@gmail.com

Note: this is the bassline, not the melody

Time Signature: 4/4

Part I
G|----------------------|-----------------|
D|---10-10---10-10---10-|---7-7---7-7---7-|
A|-8-------8-------8----|-5-----5-----5---|
E|----------------------|-----------------|

G|----------------------|-----------------|
D|---10-10---10-10---10-|---7-7---7-------|
A|-8-------8-------8----|-5-----5---------|
E|----------------------|-----------------|

Part II x 2
G|---------------------|-----------------|
D|---10---10---10---10-|---10---10-------|
A|-8----8----8----8----|-8----8----8-----|
E|---------------------|--------------8--|

G|---------------------|------------------|
D|---10---10---10---10-|---10-10-10-------|
A|-8----8----8----8----|-8----------8--8--|
E|---------------------|------------------|

Part III x 2
G|-----------------|---------------|
D|-8-8-8-8-7-7-7-7-|-6-6-6-6-5-----|
A|-----------------|------------3--|
E|-----------------|---------------|

Part IV
G|---------------------|-----------------|
D|---10---10---10---10-|---10---10-------|
A|-8----8----8----8----|-8----8----8-----|
E|---------------------|--------------8--|

G|---------------------|------------------|
D|---10---10---10---10-|---10-10-10-------|
A|-8----8----8----8----|-8----------8--8--|
E|---------------------|------------------|


Happy playing!

************************************

| x   Dead note
| g   Grace note
| (n) Ghost note
| h   Hammer-on
| p   Pull-off
| r   Release
| >   Accented note
| t   Tapping
| b   Bend
| br  Bend release
| pb  Pre-bend
| pbr Pre-bend release
| /   Slide up
| \   Slide down
| ~   Vibrato
| s   Slap
| P   Pop
| PM  Palm mute
| TR  Trill
| N   Tremolo

************************************
Добавлено: 22.10.2017
Другие материалы по этой песне:

Страница создана 01.10.2014
http://primanota.ru/misc-computer-games/super-mario-world-bonus-screen-chords.htm
Привет, Гость.
Предлагаем пройти революционный курс по гитаре.
Подарок от PrimaNota.Ru, забирай!