PrimaNota.ru - самый крупный в мире бесплатный архив песенных текстов, аккордов, табулатур и нот


Misc Computer Games - Resident Evil 4 - Save Theme - таба, видео

Регистрация Запомнить меня
Войти через:  Facebook Google Twitter Vk Yandex Mail.ru

Misc Computer Games - Resident Evil 4 - Save Theme - таба, видео

Печатать
Просмотров: 92
-------------------------------------------------------------------------------
                             Resident Evil 4 Save Theme - Misc
-------------------------------------------------------------------------------
Tabbed by: Fernando M.
E-mail: fmendez0404@gmail.com

Tuning: E Standard

e|--------------7-------------------------------------------------------------------|
B|-----8--------------10-----8-----7------------------------------------------------|
G|-----------9------------------------7---------------------------------------------|
D|--------9--------9------9-----9---------------------------------------------------|
A|----------------------------------------------------------------------------------|
E|----------------------------------------------------------------------------------|

   Short and simple, have fun playing!
Добавлено: 15.02.2016
Другие материалы по этой песне:

Страница создана 06.11.2014
http://primanota.ru/misc-computer-games/resident-evil-4-save-theme-chords.htm
Привет, Гость.
Предлагаем пройти революционный курс по гитаре.
Подарок от PrimaNota.Ru, забирай!