PrimaNota.ru - самый крупный в мире бесплатный архив песенных текстов, аккордов, табулатур и нот


Misc Computer Games - Super Mario Bros 3 - Grass Land - таба, видео

Регистрация Запомнить меня
Войти через:  Facebook Google Twitter Vk Yandex Mail.ru

Misc Computer Games - Super Mario Bros 3 - Grass Land - таба, видео

Печатать
Просмотров: 147
I enjoyed making this tab for those of whom who would like to learn to play the
jist of Grass Gland from Super Mario Bros 3.

E|--------------------------------------------------------------------|
B|-8----8----10----10----12----12-10----9h10----8----8----10----10-12-|
G|--------------------------------------------------------------------|
D|---10---------10----------10--------------------10---------10-------|
A|--------------------------------------------------------------------|
E|--------------------------------------------------------------------|

E|-8----8----10----10----12----12-10----9h10----8----8----10----10-12-|
B|--------------------------------------------------------------------|
G|---10---------10----------10--------------------10---------10-------|
D|--------------------------------------------------------------------|
A|--------------------------------------------------------------------|
E|--------------------------------------------------------------------|

E|----------------------------------------------8-8-------8-8-|
B|-8----8----10----10----12----12-10----9h10------------------|
G|------------------------------------------------------------|
D|---10---------10----------10-------------------------10-----|
A|------------------------------------------------------------|
E|------------------------------------------------------------|
Добавлено: 04.09.2015
Другие материалы по этой песне:

Страница создана 02.11.2014
http://primanota.ru/misc-computer-games/super-mario-bros-3-grass-land-chords.htm
Привет, Гость.
Предлагаем пройти революционный курс по гитаре.
Подарок от PrimaNota.Ru, забирай!