PrimaNota.ru - самый крупный в мире бесплатный архив песенных текстов, аккордов, табулатур и нот


Misc Computer Games - Megaman - Fireman - таба, бас-таба, видео

Регистрация Запомнить меня
Войти через:  Facebook Google Twitter Vk Yandex Mail.ru

Misc Computer Games - Megaman - Fireman - таба, бас-таба, видео

Печатать
Просмотров: 49
Уроки эстрадного вокала в Санкт-Петербурге
Mega Man 1 (NES) - Fire Man theme

Gtr I (E A D G B E) - 'Jazz Guitar'
Gtr II (E A D G B E) - 'Distortion Guitar'
Gtr III (E A D G B E) - 'Squarewave'


   Q=150
   Gtr I
   E  E E  E E  E E  E   E  E E  E E  E  E  E
e|---------------------|----------------------|
B|---10---10---10---10-|---10---10---10----10-|
G|---------------------|----------------------|
D|----7----7----7----7-|----7----7----7-----7-|
A|---------------------|----------------------|
E|---------------------|----------------------|
 |
 | Gtr II
 | W                     H         Q     Q
e|---------------------|----------------------|
B|---------------------|----------------------|
G|---------------------|----------------------|
D|---------------------|----------------11----|
A|---------------------|----------------------|
E|---------------------|----------------------|


      E  E E  E E     E  E   E      E   E E  E E  E  E  E
e||------------------------------|------------------------|
B||o----10---10------10-----10---|-----10---10---10----10-|
G||------------------------------|------------------------|
D||------7----7-------7------7---|------7----7----7-----7-|
A||o-----------------------------|------------------------|
E||------------------------------|------------------------|
 |
 |    H         S  S  E  E.    S    H.               Q
e||------------------------------|------------------------|
B||o-----------------------------|------------------------|
G||--11---------9-11--9----------|------------------------|
D||---------------------11-----9-|-11---------------11----|
A||o-----------------------------|------------------------|
E||------------------------------|------------------------|


    E  E E  E E     E  E   E      E  E E  E  E           E           E  E
e|-----------------------------|------------------------------------------|
B|----10---10------10-----10---|----10---10-------------10-------------10-|
G|-----------------------------|------------------------------------------|
D|-----7----7-------7------7---|-----7----7--------------7--------------7-|
A|-----------------------------|------------------------------------------|
E|-----------------------------|------------------------------------------|
 |
 |  H         S  S  E  E.    S    H          T  T  T  T  T  T  T  T  Q
e|-----------------------------|------------------------------------------|
B|-----------------------------|------------------------10-11-12-13-14----|
G|-11---------9-11-13-11-----9-|-11---------10-11-12-13-------------------|
D|-----------------------------|------------------------------------------|
A|-----------------------------|------------------------------------------|
E|-----------------------------|------------------------------------------|


    E  E E  E  E     E  E   E       E   E E  E E   E E  E
e|-------------------------------|-------------------------|
B|----10---10-------10-----10----|-----10---10----10---10--|
G|-------------------------------|-------------------------|
D|-----7----7--------7------7----|------7----7-----7----7--|
A|-------------------------------|-------------------------|
E|-------------------------------|-------------------------|
 |
 |  H          S  S  E  E.     S    H.             Q
e|-14---------12-14-12-----------|-------------------------|
B|---------------------14-----12-|-14-------------14-------|
G|-------------------------------|-------------------------|
D|-------------------------------|-------------------------|
A|-------------------------------|-------------------------|
E|-------------------------------|-------------------------|


    E  E E  E  E     E  E   E       E  E E  E E  E E  E
e|-------------------------------|----------------------|
B|----10---10-------10-----10----|----10---10---10---10-|
G|-------------------------------|----------------------|
D|-----7----7--------7------7----|-----7----7----7----7-|
A|-------------------------------|----------------------|
E|-------------------------------|----------------------|
 |
 |  H          S  S  E  E.     S    W
e|-14---------12-14-16-14-----12-|-14-------------------|
B|-------------------------------|----------------------|
G|-------------------------------|----------------------|
D|-------------------------------|----------------------|
A|-------------------------------|----------------------|
E|-------------------------------|----------------------|


   Gtr II
    Q.      E   E  E  E  E    Q.      E   E  E  E  E
e|-------------------------|-------------------------|
B|-15------14--12-------12-|-14------12-----------12-|
G|----------------13-14----|-------------14-11-13----|
D|-------------------------|-------------------------|
A|-------------------------|-------------------------|
E|-------------------------|-------------------------|
 |
 | Gtr III
 |  Q    S  E.  Q     Q       Q    S  E.  Q     Q
e|-------------------------|-------------------------|
B|-12---12-10--------------|-10---10-----------------|
G|-------------13----------|---------13--11----------|
D|-------------------14----|-------------------12----|
A|-------------------------|-------------------------|
E|-------------------------|-------------------------|


    Q.          E  E  E  E  E    E  Q.    E  Q.
e|----------------------------|-------------------|
B|-12-------------------------|----12----13-14----|
G|-------------14-13-------13-|-14----------------|
D|-------------------15-16----|-------------------|
A|----------------------------|-------------------|
E|----------------------------|-------------------|
 |
 |  Q    S  E.     Q     Q       E  Q.    E  Q.
e|----------------------------|-------------------|
B|----------------------------|-------------------|
G|-13---13--------------------|-------------------|
D|---------16-----15----------|-------------------|
A|----------------------16----|-16-17----18-19----|
E|----------------------------|-------------------|


    Q.                 E     E   E      S   E.       Q.                 E     E   E   S   E.
e|-------------------------------------12---------|-------------------------------------------|
B|-15-----------------14----12-------------15-----|-14-----------------12------------15--14---|
G|------------------------------13----------------|--------------------------14--11-----------|
D|------------------------------------------------|-------------------------------------------|
A|------------------------------------------------|-------------------------------------------|
E|------------------------------------------------|-------------------------------------------|
 |
 |  S   S  S  S  S  S  S  S  E.     S  +E       E    S   S  S  S  S  S  S  S  E.  S  +E   E
e|--------------------------12--------------------|--------------------------10---------------|
B|-12--14-12-14-12-14-12-14-----------------------|-10--12-10-12-10-12-10-12------------------|
G|---------------------------------13-(13)--------|------------------------------11-(11)------|
D|---------------------------------------------14-|--------------------------------------12---|
A|------------------------------------------------|-------------------------------------------|
E|------------------------------------------------|-------------------------------------------|


    Q.               S  S  Q.                 S  S    E  Q.    E  E  S  E.
e|-------------------------------------------------|------------------------||
B|-12---------------10-12-13-----------------11-13-|-14-15----15-16-17-18--o||
G|-------------------------------------------------|------------------------||
D|-------------------------------------------------|------------------------||
A|-------------------------------------------------|-----------------------o||
E|-------------------------------------------------|------------------------||
 |
 |  S   S S  S S  S  S  S  S   S  S  S  S  S  S  S    E  Q.    E  E  S  E.
e|-------------------------------------------------|------------------------||
B|--9--10-9-10-9-10--9-10-11--12-11-12-11-12-11-12-|-----------------------o||
G|-------------------------------------------------|-------------------14---||
D|-------------------------------------------------|-13-14----14-15-16------||
A|-------------------------------------------------|-----------------------o||
E|-------------------------------------------------|------------------------||



************************************

| (n)  Ghost note
|  w   whole note  
|  h   half note  
|  q   quarter note
|  e   8th     
|  s   16th  

************************************
Добавлено: 26.10.2017
Другие материалы по этой песне:

Страница создана 05.08.2014
http://primanota.ru/misc-computer-games/megaman-fireman-chords.htm
Привет, Гость.
Предлагаем пройти революционный курс по гитаре.
Подарок от PrimaNota.Ru, забирай!