PrimaNota.ru - самый крупный в мире бесплатный архив песенных текстов, аккордов, табулатур и нот


Misc Computer Games - Mega Man - Guts Man - таба, бас-таба, видео

Регистрация Запомнить меня
Войти через:  Facebook Google Twitter Vk Yandex Mail.ru

Misc Computer Games - Mega Man - Guts Man - таба, бас-таба, видео

Печатать
Просмотров: 131
Gtr I (E A D G B E) 
Gtr II (E A D G B E) 

  Q=140
  Gtr I
  S S  S S S S  S S S S  S S S S S S   S  S S S  S S S  S E S E S  S  S
|------------------------------------|-------------------------------------|
|------------------------------------|-------------------------------------|
|------------------------------------|--------5--7-5-----------------------|
|------4--------4--------4---------4-|----4-7--------7--4----------3--5----|
|-5-5----5---5----5---5----5---5-5---|-5------------------5-----5----------|
|------------------------------------|-------------------------------------|
|
| Gtr II
| S S  S S S S  S S S S  S S S S S S   S  S S S  S S S  S E S E S  S  S
|------------------------------------|-------------------------------------|
|------------------------------------|-------------------------------------|
|------------------------------------|-------------------------------------|
|----------------------------------7-|--------7-10-7-----------------------|
|--------------------------------9---|------8--------9---------------------|
|-8-8-10-8---8-10-8---8-10-8---8-----|-8-10------------10-8-----8-10-10----|


   H     +E  Q  +E    E S E H    S S S
|-------------------|------------------|
|-------------------|------------------|
|-------------------|------------------|
|--8-----(8)-7--(7)-|-5--------------5-|
|-------------------|------------5-8---|
|-------------------|------------------|
|
|  H     +E  Q  +E    E S E H    S S S
|-------------------|------------------|
|-------------------|------------------|
|-------------------|------------------|
|-------------------|------------------|
|-10----(10)-8--(8)-|-5------------5-5-|
|-------------------|------------8-----|


   H     +E  Q  +E     S  S S E H     S  S S
|-------------------|-------------------------|
|-------------------|-------------------------|
|------------5--(5)-|----------------------7--|
|--8-----(8)--------|--8--5-----------5--8----|
|-------------------|-------------------------|
|-------------------|-------------------------|
|
|  H     +E  Q  +E     S  S S E H     S  S S
|-------------------|-------------------------|
|-------------------|-------------------------|
|-------------------|-------------------------|
|------------7--(7)-|----------------------8--|
|-10----(10)--------|-10----------------10----|
|-------------------|----10----------10-------|


  H     H      H    +Q   S  S  S S   H     H      H    Q   S S E
|------------|---------------------|------------|-----------------|
|------------|---------------------|------------|----------6-8----|
|-5----------|-7----(7)----------7-|-5-----8----|-7---------------|
|-------7----|--------------5--8---|------------|-----------------|
|------------|---------------------|------------|-----------------|
|------------|---------------------|------------|-----------------|
|
| H     H      H    +Q   S  S  S S   H     H      H    Q   S S E
|------------|---------------------|------------|-----------------|
|------------|---------------------|------------|-----------------|
|------------|---------------------|------------|------------7----|
|-7----------|-8----(8)----------8-|-7----------|---------10------|
|------10----|----------------10---|------10----|-9---------------|
|------------|-------------10------|------------|-----------------|


   H     +E  Q  +E    E S E H    S S S
|-------------------|------------------|
|-------------------|------------------|
|-------------------|------------------|
|--8-----(8)-7--(7)-|-5--------------5-|
|-------------------|------------5-8---|
|-------------------|------------------|
|
|  H     +E  Q  +E    E S E H    S S S
|-------------------|------------------|
|-------------------|------------------|
|-------------------|------------------|
|-------------------|------------------|
|-10----(10)-8--(8)-|-5------------5-5-|
|-------------------|------------8-----|


   H     +E  Q  +E     S  S S E H     S  S S
|-------------------|-------------------------|
|-------------------|-------------------------|
|------------5--(5)-|----------------------7--|
|--8-----(8)--------|--8--5-----------5--8----|
|-------------------|-------------------------|
|-------------------|-------------------------|
|
|  H     +E  Q  +E     S  S S E H     S  S S
|-------------------|-------------------------|
|-------------------|-------------------------|
|-------------------|-------------------------|
|------------7--(7)-|----------------------8--|
|-10----(10)--------|-10----------------10----|
|-------------------|----10----------10-------|


  H    Q  Q    S S S E H    S  S  S   H    Q  Q     S  S S E H    S  S  S
|------------|----------------------|------------|------------------------|
|------------|----------------------|------------|-----8------------------|
|-7----6--5--|--------------------7-|-7----6--5--|------------------------|
|------------|-8-5----------5--8----|------------|--8-------------------5-|
|------------|----------------------|------------|----------------5--8----|
|------------|----------------------|------------|------------------------|
|
| H    Q  Q    S S S E H    S  S  S   H    Q  Q     S  S S E H    S  S  S
|------------|----------------------|------------|------------------------|
|------------|----------------------|------------|------------------------|
|------------|----------------------|------------|------------------------|
|------------|----------------------|------------|----12------------------|
|-8----7--6--|----------------------|-8----7--6--|------------------------|
|------------|-9-6----------8-10-10-|------------|-10-------------8-10-10-|


Добавлено: 07.06.2015
Другие материалы по этой песне:

Страница создана 26.09.2014
http://primanota.ru/misc-computer-games/mega-man-guts-man-chords.htm
Привет, Гость.
Предлагаем пройти революционный курс по гитаре.
Подарок от PrimaNota.Ru, забирай!