PrimaNota.ru - самый крупный в мире бесплатный архив песенных текстов, аккордов, табулатур и нот


Misc Computer Games - Super Castlevania 4 - The Forest Of Monsters Stage 2 - бас-таба, видео

Регистрация Запомнить меня
Войти через:  Facebook Google Twitter Vk Yandex Mail.ru

Misc Computer Games - Super Castlevania 4 - The Forest Of Monsters Stage 2 - бас-таба, видео

Печатать
Просмотров: 85
Уроки эстрадного вокала в Санкт-Петербурге
Gtr I (B E A D G) - Bass

  Q=200
  Gtr I
  H    E E E E     Q  Q  Q  Q    Q  E Q  E Q    Q  Q  Q  Q
|--------------||--------------|--------------|-------------|
|--------------||o-------------|--------------|-------------|
|------7---5---||--------------|--------------|-------------|
|--------5---3-||o-5--5--3--3--|-5--5-3--3-5--|-5--5--3--3--|
|--------------||--------------|--------------|-------------|


  E E E E +Q   Q    Q  Q  Q  Q    Q  E E +Q   Q    Q  Q  Q  Q
|-----------------|-------------|----------------|-------------|
|-----7-----------|-------------|----7-5-(5)--7--|-------------|
|-------5-(5)--7--|-------------|----------------|-------------|
|-5-3-------------|-5--5--3--3--|-5--------------|-5--5--3--3--|
|-----------------|-------------|----------------|-------------|


  E Q  Q  E E E   Q  Q  Q  Q    E E E E +Q   Q    Q  Q  Q  Q
|---------------|-------------|-----------------|-------------|
|---------------|-------------|-----------------|-------------|
|------5------3-|-------------|-----------------|-------------|
|-5-3-----6-6---|-5--5--3--3--|-5-3-5-----------|-5--5--3--3--|
|---------------|-------------|-------3-(3)--5--|-------------|


  E E E E +Q   Q    Q  Q  Q  Q    E E E E +Q   Q    Q  Q  Q  Q
|-----------------|-------------|-----------------|-------------|
|-----------------|-------------|-------5-(5)--7--|-------------|
|-------3-(3)-----|-------------|-----------------|-------------|
|-5-3-5--------6--|-5--5--3--3--|-5-3-5-----------|-5--5--3--3--|
|-----------------|-------------|-----------------|-------------|


  E E E E +Q   Q    Q  Q  Q  Q    Q  E Q  E Q    Q  Q  Q  Q
|-----------------|-------------|--------------|-------------|
|-----------------|-------------|--------------|-------------|
|-----------------|-------------|--------------|-------------|
|-5-3-5-----------|-5--5--3--3--|-5--5-3--3-5--|-5--5--3--3--|
|-------3-(3)--5--|-------------|--------------|-------------|


  E E E E +Q   Q    Q  Q  Q  Q    Q  E E +Q   Q    Q  Q  Q  Q
|-----------------|-------------|----------------|-------------|
|-----7-----------|-------------|----7-5-(5)--7--|-------------|
|-------5-(5)--7--|-------------|----------------|-------------|
|-5-3-------------|-5--5--3--3--|-5--------------|-5--5--3--3--|
|-----------------|-------------|----------------|-------------|


  E Q  Q  E E E   Q  Q  Q  Q    E E E E +Q   Q    Q  Q  Q  Q
|---------------|-------------|-----------------|-------------|
|---------------|-------------|-----------------|-------------|
|------5------3-|-------------|-----------------|-------------|
|-5-3-----6-6---|-5--5--3--3--|-5-3-5-----------|-5--5--3--3--|
|---------------|-------------|-------3-(3)--5--|-------------|


  E E E E +Q   Q    Q  Q  Q  Q    E E E E +Q   Q    Q  Q  Q  Q
|-----------------|-------------|-----------------|-------------|
|-----------------|-------------|-------5-(5)--7--|-------------|
|-------3-(3)-----|-------------|-----------------|-------------|
|-5-3-5--------6--|-5--5--3--3--|-5-3-5-----------|-5--5--3--3--|
|-----------------|-------------|-----------------|-------------|


  E E E E +Q   Q    Q  Q  Q  Q    Q  E E +Q   Q    Q  Q  Q  Q
|-----------------|-------------|----------------|-------------|
|-----------------|-------------|----------------|-------------|
|-----------------|-------------|----------------|-------------|
|-5-3-5-----------|-5--5--3--3--|-5--5-3-(3)--5--|-5--5--3--3--|
|-------3-(3)--5--|-------------|----------------|-------------|


  E E E E +Q   Q    Q  Q  Q  Q    Q  E E +Q   Q    Q  Q  Q  Q
|-----------------|-------------|----------------|-------------|
|-----------------|-------------|----------------|-------------|
|-----------------|-------------|----------------|-------------|
|-5-3-5-----------|-5--5--3--3--|-5--5-3-(3)--5--|-5--5--3--3--|
|-------3-(3)--5--|-------------|----------------|-------------|


  E Q  Q  E E E   Q  Q  Q  Q    E E E E +Q   Q    Q  Q  Q  Q
|---------------|-------------|-----------------|-------------|
|---------------|-------------|-----------------|-------------|
|------5------3-|-------------|-----------------|-------------|
|-5-3-----6-6---|-5--5--3--3--|-5-3-5-----------|-5--5--3--3--|
|---------------|-------------|-------3-(3)--5--|-------------|


  E E E E +Q   Q    Q  Q  Q  Q    E E E E +Q   Q    Q  Q  Q  Q
|-----------------|-------------|-----------------|-------------|
|-----------------|-------------|-----------------|-------------|
|-------3-(3)-----|-------------|-----------------|-------------|
|-5-3-5--------6--|-5--5--3--3--|-5-3-5-3-(3)--5--|-5--5--3--3--|
|-----------------|-------------|-----------------|-------------|


  E E E E +Q   Q    Q  Q  Q  Q    Q  E E +Q   Q    Q  Q  Q  Q
|-----------------|-------------|----------------|-------------|
|-----------------|-------------|----------------|-------------|
|-----------------|-------------|----------------|-------------|
|-5-3-5-----------|-5--5--3--3--|-5--5-3-(3)--5--|-5--5--3--3--|
|-------3-(3)--5--|-------------|----------------|-------------|


  E E E E +Q   Q    Q  Q  Q  Q    Q  E E +Q   Q    Q  Q  Q  Q
|-----------------|-------------|----------------|-------------|
|-----------------|-------------|----------------|-------------|
|-----------------|-------------|----------------|-------------|
|-5-3-5-----------|-5--5--3--3--|-5--5-3-(3)--5--|-5--5--3--3--|
|-------3-(3)--5--|-------------|----------------|-------------|


  E Q  Q  E E E   Q  Q  Q  Q    E E E E +Q   Q    Q  Q  Q  Q
|---------------|-------------|-----------------|-------------|
|---------------|-------------|-----------------|-------------|
|------5------3-|-------------|-----------------|-------------|
|-5-3-----6-6---|-5--5--3--3--|-5-3-5-----------|-5--5--3--3--|
|---------------|-------------|-------3-(3)--5--|-------------|


  E E E E +Q   Q    E E Q.   E Q    E Q  E +Q   Q    E Q.   Q  Q
|-----------------|---------------|----------------|--------------|
|-----------------|-----7---------|-------------7--|--------------|
|-------3-(3)-----|---------------|----------------|--------------|
|-5-3-5--------6--|-5-5------5-5--|-5-5--5-(5)-----|-5-5----5--5--|
|-----------------|---------------|----------------|--------------|


  E E E E E E E E   Q  E E E E E E   +Q   E E Q  Q    Q  E E E E E E
|-----------------|----------------|----------------|----------------|
|---7-------7-5---|----------------|----------------|----------------|
|---------7-----7-|----------------|----------------|--------------3-|
|-5---5-5---------|----5---3---5---|------5---3--5--|----5---3---5---|
|-----------------|-3----3---3---3-|-(3)----3-------|-3----3---3-----|


  +Q   E E E E E E   Q  E E E E E E   +Q   E E E E Q    Q  E E E E E E
|------------------|----------------|-----------------|----------------|
|------------------|----------------|-----------------|----------------|
|-(3)--------------|----------------|-----------------|----------------|
|------5---3---5---|----5---3---5---|------5---3---5--|----5---3---5---|
|--------3---3---3-|-3----3---3---3-|-(3)----3---3----|-3----3---3---3-|


  +Q   E E E E Q    Q  E E E E E E   +Q   E E Q  Q    Q  E E E E E E
|-----------------|----------------|----------------|----------------|
|-----------------|----------------|----------------|----------------|
|-----------------|----------------|----------------|--------------3-|
|------5---3---5--|----5---3---5---|------5---3--5--|----5---3---5---|
|-(3)----3---3----|-3----3---3---3-|-(3)----3-------|-3----3---3-----|


  +Q   E E E E E E   Q  E E E E E E   +Q   E E E E Q    Q  E E E E E E
|------------------|----------------|-----------------|----------------|
|------------------|----------------|-----------------|----------------|
|-(3)--------------|----------------|-----------------|----------------|
|------5---3---5---|----5---3---5---|------5---3---5--|----5---3---5---|
|--------3---3---3-|-3----3---3---3-|-(3)----3---3----|-3----3---3---3-|


  +Q   E E E E Q    E E Q.   E Q    E E E E +Q   Q
|-----------------|---------------|-----------------|
|-----------------|---------------|-----------------|
|-----------------|---------------|-----------------|
|------5---3---5--|-5-5-5----3-3--|-5-3-5-3-(3)--5--|
|-(3)----3---3----|---------------|-----------------|


  E Q.   Q  Q    E E E E E E E E
|--------------|------------------||
|--------------|-----------------o||
|--------------|-------7---5------||
|-5-5----3--3--|-5-3-5---5---3-0-o||
|--------------|------------------||
Добавлено: 15.02.2016
Другие материалы по этой песне:
  • Аккорды и текст

Страница создана 15.02.2016
http://primanota.ru/misc-computer-games/super-castlevania-4-forest-of-monsters-stage-2-chords.htm
Привет, Гость.
Предлагаем пройти революционный курс по гитаре.
Подарок от PrimaNota.Ru, забирай!