PrimaNota.ru - самый крупный в мире бесплатный архив песенных текстов, аккордов, табулатур и нот


Misc Computer Games - Super Castlevania 4 - The Library Stage 7 - таба, бас-таба, видео

Регистрация Запомнить меня
Войти через:  Facebook Google Twitter Vk Yandex Mail.ru

Misc Computer Games - Super Castlevania 4 - The Library Stage 7 - таба, бас-таба, видео

Печатать
Просмотров: 60
Gtr I (E A D G B E) - 'Recorder'
Gtr II (E A D G B E) - 'Harpsichord'
Gtr III (E A D G B E) - 'calliope'
Gtr IV (E A D G B E) - 'Pizzicato'
Gtr V (E A D G B E) - 'Oboe'
Gtr VI (E A D G B E) - 'Dulcimer'

    Q=170
    Gtrs I, II, III
     E E  E E  E E    E E  E  E E  E    E E  E E  E E    E E  E  E E  E
||-----------------|-12-----------12-|-14-------------|-12--------------|
||o------15---14---|------14-15------|------12---14---|------14------14-|
||--14-------------|-----------------|----------------|---------14------|
||-----------------|-----------------|----------------|-----------------|
||o----------------|-----------------|----------------|-----------------|
||-----------------|-----------------|----------------|-----------------|


   E E  E E  E E    E E  E  E E  E    E E  E E  E E    E E  E  E E  E
|-----------12---|-----------------|-----------14---|-12-----------------|
|------14--------|-14---15------14-|-15---14--------|------14------14----|
|-14-------------|---------14------|----------------|---------14---------|
|----------------|-----------------|----------------|--------------------|
|----------------|-----------------|----------------|--------------------|
|----------------|-----------------|----------------|--------------------|


  Gtrs I, III
   E  E  E  E  E  E    E  E  E  E  E  E    E  E  E  E  E  E    E  E  E  E  E  E
|-------------------|--7----------------|-------------------|-------------------|
|-----------------8-|-----8-------------|--7----------------|----10-------------|
|-----6--9-----9----|--------9--------7-|-----------7-----6-|--9-----9--6-----6-|
|--7--------9-------|-----------9--7----|--------9-----7----|--------------7----|
|-------------------|-------------------|----10-------------|-------------------|
|-------------------|-------------------|-------------------|-------------------|
|
| Gtr II
|  E  E  E  E  E  E    E  E  E  E  E  E    E  E  E  E  E  E    E  E  E  E  E  E
|-------------------|-19----------------|-------------------|----17-------------|
|----------------20-|----20-------------|-19----------------|-17----17----------|
|----18-21----21----|-------21-------19-|----------19----18-|----------18----18-|
|-19-------21-------|----------21-19----|----17-21----19----|-------------19----|
|-------------------|-------------------|-------------------|-------------------|
|-------------------|-------------------|-------------------|-------------------|


   E  E  E  E  E  E    E  E  E  E  E  E    E  E  E  E  E  E    E  E  E  E  E  E
|--------------7----|-------------------|-------------------|--------------9-------|
|-----------7-----7-|-----------7-------|-------------10----|----------10----10----|
|--9-----7----------|--7-----7----------|--7-----6--9-----9-|--6-----9-------------|
|-----9-------------|-----7-----------9-|-----7-------------|-----7----------------|
|-------------------|-------------10----|-------------------|----------------------|
|-------------------|-------------------|-------------------|----------------------|
|
|  E  E  E  E  E  E    E  E  E  E  E  E    E  E  E  E  E  E    E  E  E  E  E  E
|-------------19----|-------------------|-------------17----|----------17-21-17----|
|----------19----19-|----------19-------|----------17----17-|-------17-------------|
|-21----19----------|-19----19----------|-19----18----------|-18-------------------|
|----21-------------|----19-------17-21-|----19-------------|----19----------------|
|-------------------|-------------------|-------------------|----------------------|
|-------------------|-------------------|-------------------|----------------------|


   E  E  E  E  E  E    E  E  E  E  E  E    E   E  E  E  E  E     E   E  E  E  E  E
|-------------------|--7----------------|--------------------|---------------------|
|-----------------8-|-----8-------------|--7-----------------|------10-------------|
|-----6--9-----9----|--------9--------7-|------------7-----6-|---9------9--6-----6-|
|--7--------9-------|-----------9--7----|---------9-----7----|----------------7----|
|-------------------|-------------------|-----10-------------|---------------------|
|-------------------|-------------------|--------------------|---------------------|
|
|  E  E  E  E  E  E    E  E  E  E  E  E    E   E  E  E  E  E     E   E  E  E  E  E
|-------------------|-19----------------|--------------------|------17-------------|
|----------------20-|----20-------------|-19-----------------|--17-----17----------|
|----18-21----21----|-------21-------19-|-----------19----18-|------------18----18-|
|-19-------21-------|----------21-19----|-----17-21----19----|---------------19----|
|-------------------|-------------------|--------------------|---------------------|
|-------------------|-------------------|--------------------|---------------------|
|
| Gtrs II, IV
|  W                   E  E  E  E  E  E    H.                   +E   E  E  E  E  E
|-------------------|-------------------|--------------------|---------------------|
|-------------------|----12-------------|-10-----------------|-(10)----------------|
|-------------------|-------12-------11-|--------------------|------11-------------|
|-------------------|-12-------12-11----|--------------------|---------11----------|
|-------------------|-------------------|--------------------|------------12----12-|
|-------------------|-------------------|--------------------|---------------14----|


   E   E  E  E  E  E     E   E  E  E  E  E    E   E  E  E  E  E    E  E  E  E  E  E
|---------------7----|---------------------|--------------------|--------------9-------|
|------------7-----7-|-------------7-------|--------------10----|----------10----10----|
|--9------7----------|---7------7----------|--7------6--9-----9-|--6-----9-------------|
|------9-------------|-------7-----------9-|------7-------------|-----7----------------|
|--------------------|---------------10----|--------------------|----------------------|
|--------------------|---------------------|--------------------|----------------------|
|
|  E   E  E  E  E  E     E   E  E  E  E  E    E   E  E  E  E  E    E  E  E  E  E  E
|--------------19----|---------------------|--------------17----|----------17-21-17----|
|-----------19----19-|------------19-------|-----------17----17-|-------17-------------|
|-21-----19----------|--19-----19----------|-19-----18----------|-18-------------------|
|-----21-------------|------19-------17-21-|-----19-------------|----19----------------|
|--------------------|---------------------|--------------------|----------------------|
|--------------------|---------------------|--------------------|----------------------|
|
|  H.                   +E   E  E  E  E  E    H.                   W
|--------------------|---------------------|--------------------|----------------------|
|--------------------|---------------------|--------------------|----------------------|
|--------------------|------------12-------|-12-----------------|----------------------|
|-11-----------------|-(11)-11-12-----9-12-|--------------------|----------------------|
|--------------------|---------------------|--------------------|----------------------|
|--------------------|---------------------|--------------------|----------------------|


  Gtrs I, IV
   E  E  E  E  E  E    E  E  E   E  E  E    E  E  E  E  E  E     E   E  E  E  E  E
|-------------------|--7-----------------|-------------------|---------------------|
|-----------------8-|-----8--------------|--7----------------|--10-----------------|
|-----6--9-----9----|--------9---------7-|-----------7-----6-|-------9-----------9-|
|--7--------9-------|------------9--7----|--------9-----7----|---------11----11----|
|-------------------|--------------------|----10-------------|------------12-------|
|-------------------|--------------------|-------------------|---------------------|
|
| Gtr II
|  E  E  E  E  E  E    E  E  E   E  E  E    E  E  E  E  E  E     E   E  E  E  E  E
|-------------------|-19-----------------|-------------------|------17-------------|
|----------------20-|----20--------------|-19----------------|--17-----17----------|
|----18-21----21----|-------21--------19-|----------19----18-|------------18----18-|
|-19-------21-------|-----------21-19----|----17-21----19----|---------------19----|
|-------------------|--------------------|-------------------|---------------------|
|-------------------|--------------------|-------------------|---------------------|
|
| Gtrs V, VI
|  Q     H             Q     Q.        E    E  E  E  Q     E    +E   Q     Q     E
|-------------------|--9-----------------|--9-10--9----------|---------------------|
|-------12----------|-------10-----------|----------12----10-|-(10)----------------|
|-------------------|-----------------11-|-------------------|------11-----9-------|
|-------------------|--------------------|-------------------|------------------12-|
|-------------------|--------------------|-------------------|---------------------|
|-------------------|--------------------|-------------------|---------------------|


   E  E  E  E  E   E    E   E  E  E  E  E    H.                   +E   E  E  E  E  E
|--------------------|--------------------|--------------------|------------------------|
|----------12--------|-----12-------------|-10-----------------|-(10)-------------------|
|-------11----11-----|--------12-------11-|--------------------|------11----------------|
|--9-12-----------12-|-12--------12-11----|--------------------|---------11-------------|
|--------------------|--------------------|--------------------|------------12----12----|
|--------------------|--------------------|--------------------|---------------14-------|
|
|  E  E  E  E  E   E    E   E  E  E  E  E    E   E  E  E  E  E     E   E  E  E  E  E
|-------------19-----|--------------------|--------------17----|------------17-21-17----|
|----------19-----19-|-----------19-------|-----------17----17-|---------17-------------|
|-21----19-----------|-19-----19----------|-19-----18----------|--18--------------------|
|----21--------------|-----19-------17-21-|-----19-------------|------19----------------|
|--------------------|--------------------|--------------------|------------------------|
|--------------------|--------------------|--------------------|------------------------|
|
|  H          +Q       +Q.        E  E  E    E   E  E  E  Q       +H.
|--------------------|--------------------|--------------------|------------------------|
|--------------------|--------------------|--------10----------|------------------------|
|--9----------(9)----|-(9)--------9--9-11-|-12---9----12-11----|-(11)-------------------|
|--------------------|--------------------|--------------------|------------------------|
|--------------------|--------------------|--------------------|------------------------|
|--------------------|--------------------|--------------------|------------------------|


    H.                   +E   E  E   E  E  E    E  E  E  E  E  E     E   E  E  E  E  E
|---------------------|----------------------|-------------------|---------------------|
|---------------------|-------------10-------|-------------------|------10-------------|
|---------------------|----------------------|-11----------------|---9------9----------|
|--11-----------------|-(11)-11-12------9-12-|--------9-12----11-|------------11----11-|
|---------------------|----------------------|----10-------12----|---------------12----|
|---------------------|----------------------|-------------------|---------------------|
|
|   E   E  E  E  E  E     E   E  E   E  E  E    E  E  E  E  E  E     E   E  E  E  E  E
|---------------------|--19------------------|-------------------|------17-------------|
|------------------20-|------20--------------|-19----------------|--17-----17----------|
|------18-21----21----|---------21--------19-|----------19----18-|------------18----18-|
|--19--------21-------|-------------21-19----|----17-21----19----|---------------19----|
|---------------------|----------------------|-------------------|---------------------|
|---------------------|----------------------|-------------------|---------------------|
|
|  +Q      H              Q      Q.        E    E  E  E  Q     E    +E   Q     Q     E
|---------------------|---9------------------|--9-10--9----------|---------------------|
|---------12----------|---------10-----------|----------12----10-|-(10)----------------|
|-(11)----------------|-------------------11-|-------------------|------11-----9-------|
|---------------------|----------------------|-------------------|------------------12-|
|---------------------|----------------------|-------------------|---------------------|
|---------------------|----------------------|-------------------|---------------------|


   E  E  E  E  E   E    E   E  E  E  E  E    E  E  E  E  E  E     E   E  E  E  E  E
|--------------7-----|--------------------|-------------------|----------------9-------|
|-----------7------7-|------------7-------|-------------10----|------------10----10----|
|--9-----7-----------|--7------7----------|--7-----6--9-----9-|---6------9-------------|
|-----9--------------|------7-----------9-|-----7-------------|-------7----------------|
|--------------------|--------------10----|-------------------|------------------------|
|--------------------|--------------------|-------------------|------------------------|
|
|  E  E  E  E  E   E    E   E  E  E  E  E    E  E  E  E  E  E     E   E  E  E  E  E
|-------------19-----|--------------------|-------------17----|------------17-21-17----|
|----------19-----19-|-----------19-------|----------17----17-|---------17-------------|
|-21----19-----------|-19-----19----------|-19----18----------|--18--------------------|
|----21--------------|-----19-------17-21-|----19-------------|------19----------------|
|--------------------|--------------------|-------------------|------------------------|
|--------------------|--------------------|-------------------|------------------------|
|
|  H          +Q       +Q.        E  E  E    E  E  E  E  Q       +H.
|--------------------|--------------------|-------------------|------------------------|
|--------------------|--------------------|-------10----------|------------------------|
|--9----------(9)----|-(9)--------9--9-11-|-12--9----12-11----|-(11)-------------------|
|--------------------|--------------------|-------------------|------------------------|
|--------------------|--------------------|-------------------|------------------------|
|--------------------|--------------------|-------------------|------------------------|


   W                    W                    H.                   +H.
|--------------------|--------------------|--9-----------------|--(9)----------------|
|--------------------|--------------------|--------------------|---------------------|
|--------------------|--------------------|--------------------|---------------------|
|--------------------|--------------------|--------------------|---------------------|
|--------------------|--------------------|--------------------|---------------------|
|--------------------|--------------------|--------------------|---------------------|
|
|  E   E  E  E  E  E    E   E  E  E  E  E    E   E  E  E  E  E     E   E  E  E  E  E
|--------------------|-19-----------------|--------------------|------17-------------|
|-----------------20-|-----20-------------|-19-----------------|--17-----17----------|
|-----18-21----21----|--------21-------19-|-----------19----18-|------------18----18-|
|-19--------21-------|-----------21-19----|-----17-21----19----|---------------19----|
|--------------------|--------------------|--------------------|---------------------|
|--------------------|--------------------|--------------------|---------------------|
|
|  H.                  +H.                   H.                   +H.
|--9-----------------|-(9)----------------|--------------------|---------------------|
|--------------------|--------------------|-10-----------------|-(10)----------------|
|--------------------|--------------------|--------------------|---------------------|
|--------------------|--------------------|--------------------|---------------------|
|--------------------|--------------------|--------------------|---------------------|
|--------------------|--------------------|--------------------|---------------------|


   H.                   +H.                   H.                   +H.
|--------------------|---------------------|--------------------|------------------------|
|-10-----------------|-(10)----------------|-12-----------------|-(12)-------------------|
|--------------------|---------------------|--------------------|------------------------|
|--------------------|---------------------|--------------------|------------------------|
|--------------------|---------------------|--------------------|------------------------|
|--------------------|---------------------|--------------------|------------------------|
|
|  E   E  E  E  E  E     E   E  E  E  E  E    E   E  E  E  E  E     E   E  E  E  E  E
|--------------19----|---------------------|--------------17----|------------17-21-17----|
|-----------19----19-|------------19-------|-----------17----17-|---------17-------------|
|-21-----19----------|--19-----19----------|-19-----18----------|--18--------------------|
|-----21-------------|------19-------17-21-|-----19-------------|------19----------------|
|--------------------|---------------------|--------------------|------------------------|
|--------------------|---------------------|--------------------|------------------------|
|
|  H.                   +H.                   H.                   +H.
|--------------------|---------------------|--------------------|------------------------|
|-12-----------------|-(12)----------------|--------------------|------------------------|
|--------------------|---------------------|-11-----------------|-(11)-------------------|
|--------------------|---------------------|--------------------|------------------------|
|--------------------|---------------------|--------------------|------------------------|
|--------------------|---------------------|--------------------|------------------------|


   W                    W                    H.                   +H.
|--------------------|--------------------|--9-----------------|--(9)----------------|
|--------------------|--------------------|--------------------|---------------------|
|--------------------|--------------------|--------------------|---------------------|
|--------------------|--------------------|--------------------|---------------------|
|--------------------|--------------------|--------------------|---------------------|
|--------------------|--------------------|--------------------|---------------------|
|
|  E   E  E  E  E  E    E   E  E  E  E  E    E   E  E  E  E  E     E   E  E  E  E  E
|--------------------|-19-----------------|--------------------|------17-------------|
|-----------------20-|-----20-------------|-19-----------------|--17-----17----------|
|-----18-21----21----|--------21-------19-|-----------19----18-|------------18----18-|
|-19--------21-------|-----------21-19----|-----17-21----19----|---------------19----|
|--------------------|--------------------|--------------------|---------------------|
|--------------------|--------------------|--------------------|---------------------|
|
|  H.                  +H.                   H.                   +H.
|--9-----------------|-(9)----------------|--------------------|---------------------|
|--------------------|--------------------|-10-----------------|-(10)----------------|
|--------------------|--------------------|--------------------|---------------------|
|--------------------|--------------------|--------------------|---------------------|
|--------------------|--------------------|--------------------|---------------------|
|--------------------|--------------------|--------------------|---------------------|


   H.                   +H.                   H.                   +H.
|--------------------|---------------------|--------------------|------------------------|
|-10-----------------|-(10)----------------|-12-----------------|-(12)-------------------|
|--------------------|---------------------|--------------------|------------------------|
|--------------------|---------------------|--------------------|------------------------|
|--------------------|---------------------|--------------------|------------------------|
|--------------------|---------------------|--------------------|------------------------|
|
|  E   E  E  E  E  E     E   E  E  E  E  E    E   E  E  E  E  E     E   E  E  E  E  E
|--------------19----|---------------------|--------------17----|------------17-21-17----|
|-----------19----19-|------------19-------|-----------17----17-|---------17-------------|
|-21-----19----------|--19-----19----------|-19-----18----------|--18--------------------|
|-----21-------------|------19-------17-21-|-----19-------------|------19----------------|
|--------------------|---------------------|--------------------|------------------------|
|--------------------|---------------------|--------------------|------------------------|
|
|  H.                   +H.                   H.                   +H.
|--------------------|---------------------|--------------------|------------------------|
|-12-----------------|-(12)----------------|--------------------|------------------------|
|--------------------|---------------------|-11-----------------|-(11)-------------------|
|--------------------|---------------------|--------------------|------------------------|
|--------------------|---------------------|--------------------|------------------------|
|--------------------|---------------------|--------------------|------------------------|


   E  E  E  E  E  E    E  E  E   E  E  E    E  E  E  E  E  E     E   E  E  E  E  E
|-------------------|--7-----------------|-------------------|---------------------|
|-----------------8-|-----8--------------|--7----------------|--10-----------------|
|-----6--9-----9----|--------9---------7-|-----------7-----6-|-------9-----------9-|
|--7--------9-------|------------9--7----|--------9-----7----|---------11----11----|
|-------------------|--------------------|----10-------------|------------12-------|
|-------------------|--------------------|-------------------|---------------------|
|
|  E  E  E  E  E  E    E  E  E   E  E  E    E  E  E  E  E  E     E   E  E  E  E  E
|-------------------|-19-----------------|-------------------|------17-------------|
|----------------20-|----20--------------|-19----------------|--17-----17----------|
|----18-21----21----|-------21--------19-|----------19----18-|------------18----18-|
|-19-------21-------|-----------21-19----|----17-21----19----|---------------19----|
|-------------------|--------------------|-------------------|---------------------|
|-------------------|--------------------|-------------------|---------------------|
|
|  Q     H             Q     Q.        E    E  E  E  Q     E    +E   Q     Q     E
|-------------------|--9-----------------|--9-10--9----------|---------------------|
|-------12----------|-------10-----------|----------12----10-|-(10)----------------|
|-------------------|-----------------11-|-------------------|------11-----9-------|
|-------------------|--------------------|-------------------|------------------12-|
|-------------------|--------------------|-------------------|---------------------|
|-------------------|--------------------|-------------------|---------------------|


   E  E  E  E  E   E    E   E  E  E  E  E    H.                   +E   E  E  E  E  E
|--------------------|--------------------|--------------------|------------------------|
|----------12--------|-----12-------------|-10-----------------|-(10)-------------------|
|-------11----11-----|--------12-------11-|--------------------|------11----------------|
|--9-12-----------12-|-12--------12-11----|--------------------|---------11-------------|
|--------------------|--------------------|--------------------|------------12----12----|
|--------------------|--------------------|--------------------|---------------14-------|
|
|  E  E  E  E  E   E    E   E  E  E  E  E    E   E  E  E  E  E     E   E  E  E  E  E
|-------------19-----|--------------------|--------------17----|------------17-21-17----|
|----------19-----19-|-----------19-------|-----------17----17-|---------17-------------|
|-21----19-----------|-19-----19----------|-19-----18----------|--18--------------------|
|----21--------------|-----19-------17-21-|-----19-------------|------19----------------|
|--------------------|--------------------|--------------------|------------------------|
|--------------------|--------------------|--------------------|------------------------|
|
|  H          +Q       +Q.        E  E  E    E   E  E  E  Q       +H.
|--------------------|--------------------|--------------------|------------------------|
|--------------------|--------------------|--------10----------|------------------------|
|--9----------(9)----|-(9)--------9--9-11-|-12---9----12-11----|-(11)-------------------|
|--------------------|--------------------|--------------------|------------------------|
|--------------------|--------------------|--------------------|------------------------|
|--------------------|--------------------|--------------------|------------------------|


    H.                   +E   E  E   E  E  E    E  E  E  E  E  E     E   E  E  E  E  E
|---------------------|----------------------|-------------------|---------------------|
|---------------------|-------------10-------|-------------------|------10-------------|
|---------------------|----------------------|-11----------------|---9------9----------|
|--11-----------------|-(11)-11-12------9-12-|--------9-12----11-|------------11----11-|
|---------------------|----------------------|----10-------12----|---------------12----|
|---------------------|----------------------|-------------------|---------------------|
|
|   E   E  E  E  E  E     E   E  E   E  E  E    E  E  E  E  E  E     E   E  E  E  E  E
|---------------------|--19------------------|-------------------|------17-------------|
|------------------20-|------20--------------|-19----------------|--17-----17----------|
|------18-21----21----|---------21--------19-|----------19----18-|------------18----18-|
|--19--------21-------|-------------21-19----|----17-21----19----|---------------19----|
|---------------------|----------------------|-------------------|---------------------|
|---------------------|----------------------|-------------------|---------------------|
|
|  +Q      H              Q      Q.        E    E  E  E  Q     E    +E   Q     Q     E
|---------------------|---9------------------|--9-10--9----------|---------------------|
|---------12----------|---------10-----------|----------12----10-|-(10)----------------|
|-(11)----------------|-------------------11-|-------------------|------11-----9-------|
|---------------------|----------------------|-------------------|------------------12-|
|---------------------|----------------------|-------------------|---------------------|
|---------------------|----------------------|-------------------|---------------------|


   E  E  E  E  E   E    E   E  E  E  E  E    E  E  E  E  E  E     E   E  E  E  E  E
|--------------7-----|--------------------|-------------------|----------------9-------|
|-----------7------7-|------------7-------|-------------10----|------------10----10----|
|--9-----7-----------|--7------7----------|--7-----6--9-----9-|---6------9-------------|
|-----9--------------|------7-----------9-|-----7-------------|-------7----------------|
|--------------------|--------------10----|-------------------|------------------------|
|--------------------|--------------------|-------------------|------------------------|
|
|  E  E  E  E  E   E    E   E  E  E  E  E    E  E  E  E  E  E     E   E  E  E  E  E
|-------------19-----|--------------------|-------------17----|------------17-21-17----|
|----------19-----19-|-----------19-------|----------17----17-|---------17-------------|
|-21----19-----------|-19-----19----------|-19----18----------|--18--------------------|
|----21--------------|-----19-------17-21-|----19-------------|------19----------------|
|--------------------|--------------------|-------------------|------------------------|
|--------------------|--------------------|-------------------|------------------------|
|
|  H          +Q       +Q.        E  E  E    E  E  E  E  Q       +H.
|--------------------|--------------------|-------------------|------------------------|
|--------------------|--------------------|-------10----------|------------------------|
|--9----------(9)----|-(9)--------9--9-11-|-12--9----12-11----|-(11)-------------------|
|--------------------|--------------------|-------------------|------------------------|
|--------------------|--------------------|-------------------|------------------------|
|--------------------|--------------------|-------------------|------------------------|


  Gtrs V, VI
   H.                  +H.                   H.                   +H.
|--9-----------------|-(9)----------------|--------------------|---------------------|
|--------------------|--------------------|-10-----------------|-(10)----------------|
|--------------------|--------------------|--------------------|---------------------|
|--------------------|--------------------|--------------------|---------------------|
|--------------------|--------------------|--------------------|---------------------|
|--------------------|--------------------|--------------------|---------------------|
|
|  E   E  E  E  E  E    E   E  E  E  E  E    E   E  E  E  E  E     E   E  E  E  E  E
|--------------------|-19-----------------|--------------------|------17-------------|
|-----------------20-|-----20-------------|-19-----------------|--17-----17----------|
|-----18-21----21----|--------21-------19-|-----------19----18-|------------18----18-|
|-19--------21-------|-----------21-19----|-----17-21----19----|---------------19----|
|--------------------|--------------------|--------------------|---------------------|
|--------------------|--------------------|--------------------|---------------------|


   H.                   +H.                   H.                   +H.
|--------------------|---------------------|--------------------|------------------------|
|-12-----------------|-(12)----------------|--------------------|------------------------|
|--------------------|---------------------|-11-----------------|-(11)-------------------|
|--------------------|---------------------|--------------------|------------------------|
|--------------------|---------------------|--------------------|------------------------|
|--------------------|---------------------|--------------------|------------------------|
|
|  E   E  E  E  E  E     E   E  E  E  E  E    E   E  E  E  E  E     E   E  E  E  E  E
|--------------19----|---------------------|--------------17----|------------17-21-17----|
|-----------19----19-|------------19-------|-----------17----17-|---------17-------------|
|-21-----19----------|--19-----19----------|-19-----18----------|--18--------------------|
|-----21-------------|------19-------17-21-|-----19-------------|------19----------------|
|--------------------|---------------------|--------------------|------------------------|
|--------------------|---------------------|--------------------|------------------------|


  Gtrs I, V, VI
   ~~~~~~~~~~~~~~~~~~~~~~~~~~~~~~~~~~~~~~~~~~~~~~~~~~~~~~~~~~~~~~~~~~~~~~~~~~~~~~~~~~~~
   H.                   +H.                   H.                   +H.
|-12-----------------|-(12)----------------|--------------------|---------------------|
|-14-----------------|-(14)----------------|-14-----------------|-(14)----------------|
|--------------------|---------------------|-14-----------------|-(14)----------------|
|--------------------|---------------------|--------------------|---------------------|
|--------------------|---------------------|--------------------|---------------------|
|--------------------|---------------------|--------------------|---------------------|
|
|  E   E  E  E  E  E     E   E  E  E  E  E    E   E  E  E  E  E     E   E  E  E  E  E
|--------------------|--19-----------------|--------------------|------17-------------|
|-----------------20-|------20-------------|-19-----------------|--17-----17----------|
|-----18-21----21----|---------21-------19-|-----------19----18-|------------18----18-|
|-19--------21-------|------------21-19----|-----17-21----19----|---------------19----|
|--------------------|---------------------|--------------------|---------------------|
|--------------------|---------------------|--------------------|---------------------|


 ~~~~~~~~~~~~~~~~~~~~~~~~~~~~~~~~~~~~~~~~~~~~~~~~~~~~~~~~~~~~~~~~~~~~~~
   H.                   +H.                   H.                   +H.
|--------------------|---------------------|-14-----------------|-(14)--------------------||
|-15-----------------|-(15)----------------|--------------------|------------------------o||
|-16-----------------|-(16)----------------|-11-----------------|-(11)--------------------||
|--------------------|---------------------|--------------------|-------------------------||
|--------------------|---------------------|--------------------|------------------------o||
|--------------------|---------------------|--------------------|-------------------------||
|
|  E   E  E  E  E  E     E   E  E  E  E  E    E   E  E  E  E  E     E   E  E  E  E  E
|--------------19----|---------------------|--------------17----|------------17-21-17-----||
|-----------19----19-|------------19-------|-----------17----17-|---------17-------------o||
|-21-----19----------|--19-----19----------|-19-----18----------|--18---------------------||
|-----21-------------|------19-------17-21-|-----19-------------|------19-----------------||
|--------------------|---------------------|--------------------|------------------------o||
|--------------------|---------------------|--------------------|-------------------------||
Добавлено: 18.02.2016
Другие материалы по этой песне:

Страница создана 15.02.2016
http://primanota.ru/misc-computer-games/super-castlevania-4-library-stage-7-chords.htm
Привет, Гость.
Предлагаем пройти революционный курс по гитаре.
Подарок от PrimaNota.Ru, забирай!