PrimaNota.ru - самый крупный в мире бесплатный архив песенных текстов, аккордов, табулатур и нот


Misc Computer Games - The Guardian Legend - Boss 1 Theme - таба, бас-таба, видео

Регистрация Запомнить меня
Войти через:  Facebook Google Twitter Vk Yandex Mail.ru

Misc Computer Games - The Guardian Legend - Boss 1 Theme - таба, бас-таба, видео

Печатать
Просмотров: 108
Уроки эстрадного вокала в Санкт-Петербурге
Gtr I (E A D G B E) 
Gtr II (E A D G B E) - Mostly Echo

    Q=135
    Gtr I
    E   E    E  E  E  E  E  E    E  E  E  E  E  E  E  E
||----------------------------|-------------------------|
||o---------------------------|-------------------------|
||----------------------------|-------------------------|
||--7--10----9-10--7-10--9-10-|--7-10--9-10--7-10--9-10-|
||o---------------------------|-------------------------|
||----------------------------|-------------------------|
|
|   Gtr II
|   E.    S  E  E  E  E  E  E    E  E  E  E  E  E  E  E
||----------------------------|-------------------------|
||o---------------------------|-------------------------|
||----------------------------|-------------------------|
||--------7-10--9-10--7-10--9-|-10--7-10--9-10--7-10--9-|
||o---------------------------|-------------------------|
||----------------------------|-------------------------|


   E  E  E  E  E  E  E  E    E  E  E  E  E  E  E  E
|-------------------------|-------------------------|
|-------------------------|-------------------------|
|-------------------------|-------------------------|
|--7-10--9-10--7-10--9-10-|--7-10--9-10--7-10--9-10-|
|-------------------------|-------------------------|
|-------------------------|-------------------------|
|
|  E  E  E  E  E  E  E  E    E  E  E  E  E  E  E  E
|-------------------------|-------------------------|
|-------------------------|-------------------------|
|-------------------------|-------------------------|
|-10--7-10--9-10--7-10--9-|-10--7-10--9-10--7-10--9-|
|-------------------------|-------------------------|
|-------------------------|-------------------------|


   E E E E E E E E   +E  E E E E E E E   E E  E  E E E  E  E   E E E E E E E E
|------------------|-------------------|---------------------|-----------------|
|------------------|-------------------|---------------------|-----------------|
|------------------|-----9-7-9---9-7-9-|---8-----8---8-----8-|---7-6-7---7-6-7-|
|--6-9-7-9-6-9-7-9-|-(9)-------9-------|-7---10----7---10----|-7-------7-------|
|------------------|-------------------|---------------------|-----------------|
|------------------|-------------------|---------------------|-----------------|
|
|  E E E E E E E E    E  E E E E E E E   E E  E  E E E  E  E   E E E E E E E E
|------------------|-------------------|---------------------|-----------------|
|------------------|-------------------|---------------------|-----------------|
|------------------|-------9-7-9---9-7-|-9----8----8----8----|-8---7-6-7---7-6-|
|-10-6-9-7-9-6-9-7-|--9--9-------9-----|---7----10---7----10-|---7-------7-----|
|------------------|-------------------|---------------------|-----------------|
|------------------|-------------------|---------------------|-----------------|


  E  E  E  E  E  E  E  E    E E E E E E E E
|-------------8----------|----------7-------|
|---------10----10-------|--------7---7-----|
|------10----------10----|------8-------8---|
|-7-10----------------10-|----9-----------9-|
|------------------------|--9---------------|
|------------------------|------------------|
|
| E  E  E  E  E  E  E  E    E E E E E E E E
|----------------8-------|------------7-----|
|------------10----10----|----------7---7---|
|-7-------10----------10-|--------8-------8-|
|----7-10----------------|-10---9-----------|
|------------------------|----9-------------|
|------------------------|------------------|


  E E E E E E E E   E E E E E E E E
|---------6-------|---------5-------|
|-------6---6-----|-------5---5-----|
|-----7-------7---|-----6-------6---|
|---8-----------8-|---7-----------7-|
|-8---------------|-7---------------|
|-----------------|-----------------|
|
| E E E E E E E E   E E E E E E E E
|-----------6-----|-----------5-----|
|---------6---6---|---------5-------|
|-------7-------7-|-------6-----6---|
|-9---8-----------|-8---7---------7-|
|---8-------------|---7-------------|
|-----------------|-----------------|


  E E E E E E E E    H        +S  S S S S S S  S
|---------4-------|-------------------------7-10-----||
|-------4---4-----|-------------------8---8---------o||
|-----5-------5---|-----------------7---7------------||
|---6-----------6-|--5--------(5)-9------------------||
|-6---------------|---------------------------------o||
|-----------------|----------------------------------||
|
| E E E E E E E E   +S  S S S  S  S S S S S E  E E
|---------4-------|------------------------------3---||
|-------4---4-----|----------------------------2----o||
|-----5-------5---|-------------------------4--------||
|---6-----------6-|-(6)-5-4-5--4--5-4-5-4-5----------||
|-6---------------|---------------------------------o||
|-----------------|----------------------------------||
Добавлено: 18.02.2016
Другие материалы по этой песне:

Страница создана 15.02.2016
http://primanota.ru/misc-computer-games/guardian-legend-boss-1-theme-chords.htm
Привет, Гость.
Предлагаем пройти революционный курс по гитаре.
Подарок от PrimaNota.Ru, забирай!