PrimaNota.ru - самый крупный в мире бесплатный архив песенных текстов, аккордов, табулатур и нот


Misc Computer Games - The World Ends With You - Calling - бас-таба, видео

Регистрация Запомнить меня
Войти через:  Facebook Google Twitter Vk Yandex Mail.ru

Misc Computer Games - The World Ends With You - Calling - бас-таба, видео

Печатать
Просмотров: 113
Уроки эстрадного вокала в Санкт-Петербурге
The World Ends With You - Calling

Tabbed by: Ashy (XxThreeCheeersxX)
E-mail: burdickash@gmail.com

Tuning: Standard

Intro (come in and keep time with the bass drum)
G|-----------------------------------------|
D|-----------------------------------------|
A|-----------------------------------------| x 9
E|-2----2----2----2----2----2----2----2----|

Verse x 2
G|---------------------------------------------------------------------------------|
D|---------------------------------------------------------------------------------|
A|-5----5----5----5----5----5----5----5----7----7----7----7----7----7----7----7----|
E|---------------------------------------------------------------------------------|

Chorus
G|-----------------------------------------|
D|-----------------------------------------|
A|-----------------------------------------| x 4
E|-2----2----2----2----5----5----7----7----|

Intro x 8

Verse x 2

Chorus x 4

Bridge x 2
G|-----------------------------------------|
D|-----------------------------------------|
A|-----------------------------------------| x 2
E|-2----2----2----2----2----2----2----2----|

G|---------------------------------------------------------------------------------|
D|---------------------------------------------------------------------------------|
A|-5----5----5----5----5----5----5----5----7----7----7----7----7----7----7----7----|
E|---------------------------------------------------------------------------------|

Final Chorus (come in at "let me go set me free")
G|---------------------------------------------------------------------------------|
D|---------------------------------------------------------------------------------|
A|-5~--------------------------------------7~--------------------------------------|
E|---------------------------------------------------------------------------------|

G|-----------------------------------------|
D|-----------------------------------------|
A|-----------------------------------------| x 8
E|-2----2----2----2----5----5----7----7----|

Happy playing!

| /  slide up
| \  slide down
| h  hammer-on
| p  pull-off
| ~  vibrato
| +  harmonic
| x  Mute note
===============================================================================
Добавлено: 15.02.2016
Другие материалы по этой песне:
  • Аккорды и текст

Страница создана 15.02.2016
http://primanota.ru/misc-computer-games/world-ends-with-you-calling-chords.htm
Привет, Гость.
Предлагаем пройти революционный курс по гитаре.
Подарок от PrimaNota.Ru, забирай!