PrimaNota.ru - самый крупный в мире бесплатный архив песенных текстов, аккордов, табулатур и нот


Misc Computer Games - The Guardian Legend - Title Screen - таба, бас-таба, видео

Регистрация Запомнить меня
Войти через:  Facebook Google Twitter Vk Yandex Mail.ru

Misc Computer Games - The Guardian Legend - Title Screen - таба, бас-таба, видео

Печатать
Просмотров: 86
Gtr I (E A D G B E) 
Gtr II (E A D G B E) 

  Q=135
 3/4                             4/4
  Gtr I
  |---3----|
  E +E    +E       Q        E E    E  E H.
|-------------------------------|--------------------|
|-------------------------------|--------------------|
|---------------------------7---|--------------------|
|-7-(7)---(7)-----------------7-|--------------------|
|------------------5------------|-10--9-7------------|
|-------------------------------|--------------------|
|
| Gtr II
|       |--3---|
| E     E     +S  +S  +S  Q   E    E  E E  E E E E E
|-------------------------------|--------------------|
|-------------------------------|--------------------|
|-----------------------------7-|--------------------|
|-------7-----(7)-(7)-(7)-------|--7-----------------|
|-------------------------5-----|----10-8--7-----3---|
|-------------------------------|------------0-3---0-|


 3/4                             4/4
  |---3----|
  E +E    +E       Q        E E    E E Q.         E E E
|-------------------------------|-----------------------|
|-------------------------------|-----------------------|
|---------------------------4---|----4-5------------4-5-|
|-7-(7)---(7)-----------------5-|--7--------------7-----|
|------------------5------------|-----------------------|
|-------------------------------|-----------------------|
|
|       |--3---|
| E     E     +S  +S  +S  Q   E    E E E   E  +Q    E E
|-------------------------------|-----------------------|
|-------------------------------|-----------------------|
|-------------------------------|-----------------------|
|-------7-----(7)-(7)-(7)-----9-|----7-9--10-(10)---7-9-|
|-------------------------5-----|-10--------------------|
|-------------------------------|-----------------------|


                                                   |-3--|
  W          +W           Q.          S   S  Q     E  E E
|----------|------------|-------------------------------7-|
|----------|------------|--------------------------8-10---|
|-7--------|-(7)--------|-7-------------------------------|
|----------|------------|------------10---9-10------------|
|----------|------------|---------------------------------|
|----------|------------|---------------------------------|
|
|                         |-3--| |--3---|    |-3-| |-3--|
| W           W           E  E E E E    E    E E E E  E E
|----------|------------|--------------------------3------|
|----------|-10---------|------------------------5----5---|
|----------|------------|---------------5------5--------5-|
|-7--------|------------|----3-5-3-5---------5------------|
|----------|------------|-3-------------------------------|
|----------|------------|---------------------------------|


   E.     S H.
|-------------------------------|
|-10----------------------------|
|---------7-7-------------------|
|-------------------------------|
|-------------------------------|
|-------------------------------|
|
|  |-3--|   |-3--| |-3-| |-3-|
|  E  E E   E  E E E E E E E E
|-------------------------------|
|--3----------------------------|
|-----2-----2-------------------|
|-------4------4---4------------|
|----------------5---5---5------|
|----------------------5---5-2--|


  Q.          S   S Q      Q
|--------------------------------|
|-8------------------------------|
|------------10---9-7------------|
|-------------------------10-----|
|--------------------------------|
|--------------------------------|
|
| |-3--| |--3---|   |-3-|  |-3-|
| E  E E E E    E   E E E  E E E
|-----------------------5--8-5---|
|---------------6-----6--------6-|
|------5---5--------5------------|
|----7---7-----------------------|
|-8------------------------------|
|--------------------------------|


  E.      S Q.       E E E   W          Q.   S S Q  E E
|--------------------------|----------|--------------------|
|--------10----------------|----------|-------------9------|
|-7---------7--------7-7-7-|-9--------|-6--------6----6----|
|--------------------------|----------|------9-8-----------|
|--------------------------|----------|--------------------|
|--------------------------|----------|--------------------|
|
| |-3--|    |-3--|
| E  E E    E  E E E E E E   W          W
|-5------------------------|----------|--------------------|
|----7------7--------------|----------|--------------------|
|------7-------7-----------|----------|--------------------|
|----------------7-4-7-7-7-|-9--------|--------------------|
|--------------------------|----------|-9------------------|
|--------------------------|----------|--------------------|


   E. S H.         E. S Q   E.  S  Q     E.  S  Q.     E  E  E    W
|---------------|---------------------|-11------------------11-|-13----|
|-11--9-9-------|-11--9-9--11---9--9--|-----12-12-----12-14----|-------|
|---------------|---------------------|------------------------|-------|
|---------------|---------------------|------------------------|-------|
|---------------|---------------------|------------------------|-------|
|---------------|---------------------|------------------------|-------|
|
|  E. S H.         E. S Q   E.  S  Q     E.  S  Q   H             W
|---------------|---------------------|------------------------|-10----|
|---------------|---------------------|-12---------------------|-------|
|-11--9-9-------|-11--8-8--11---------|-----11-11--------------|-------|
|---------------|--------------11-11--|------------------------|-------|
|---------------|---------------------|------------------------|-------|
|---------------|---------------------|------------------------|-------|


   +H     H      H        E E E E   Q   Q   Q   Q      E. S  H.
|-(13)---------|------------------|-----------------|---------------------|
|--------------|------------------|-----------------|---------------------|
|--------------|------------------|-----------------|---------------------|
|--------------|------------------|-6---5-----------|---------------------|
|--------------|-5----------5-6-8-|---------8---6---|--8--5--5------------|
|--------------|------------------|-----------------|---------------------|
|
|  +H            E E +Q.    E E E   E Q   Q   Q   E   +E  E +S  S E +H
|-(10)---------|------------------|-----------------|---------------------|
|--------------|------------------|-----------------|---------------------|
|--------------|------------------|-----------------|---------------------|
|--------------|------------------|---6---5---------|---------------------|
|--------------|---5-(5)------5-6-|-8---------8---6-|-(6)-8-(8)-5-5-(5)---|
|--------------|------------------|-----------------|---------------------|


  +H.         Q    H        E E E E   Q   Q   Q   Q      W
|----------------|------------------|-----------------|--------------|
|----------------|------------------|-----------------|--------------|
|----------------|------------------|-----------------|--------------|
|----------------|------------------|-6---5-----------|--------------|
|-(5)------------|-5----------5-6-8-|---------8---6---|--8-----------|
|----------------|------------------|-----------------|--------------|
|
|  E. S H.         E E +Q.    E E E   E Q   Q   Q   E   +E  E +H.
|----------------|------------------|-----------------|--------------|
|----------------|------------------|-----------------|--------------|
|----------------|------------------|-----------------|--------------|
|--8-------------|------------------|---6---5---------|--------------|
|-----8-8--------|---5-(5)------5-6-|-8---------8---6-|-(6)-8-(8)----|
|----------------|------------------|-----------------|--------------|


  +H      H         H        E E E  E    Q   Q    E  Q.       W
|-----------------|-------------------|--------------------|--------------|
|-----------------|-------------------|--------------------|--------------|
|-----------------|-------------------|--8---7-------------|--------------|
|-----------------|-7----------7-8-10-|----------10--8-----|--8-----------|
|-(8)-------------|-------------------|--------------------|--------------|
|-----------------|-------------------|--------------------|--------------|
|
| +H     +E  E Q    E E +Q.    E E  E    E Q   Q     E  Q    +E  E +H.
|-----------------|-------------------|--------------------|--------------|
|-----------------|-------------------|--------------------|--------------|
|-----------------|-------------------|----8---7-----------|--------------|
|-----------------|---7-(7)------7--8-|-10----------10--8--|-(8)-8-(8)----|
|-(8)----(8)------|-------------------|--------------------|--------------|
|-----------------|-------------------|--------------------|--------------|


  W           H          E  E  E E    Q    Q   E Q.       W
|----------|-----------------------|-------------------|----------------|
|----------|-----------------------|-------------------|----------------|
|----------|-----------------------|-------------------|----------------|
|----------|-------------------7-8-|-10----8---7-------|----------------|
|----------|-10------------10------|-------------8-----|-10-------------|
|----------|-----------------------|-------------------|----------------|
|
| W           E  E  +Q.     E  E E    E  Q   Q   E  Q    +E   E  +H.
|----------|-----------------------|-------------------|----------------|
|----------|-----------------------|-------------------|----------------|
|----------|-----------------------|-------------------|----------------|
|----------|---------------------7-|--8-10---8---7-----|----------------|
|----------|----10-(10)-------10---|----------------8--|-(8)-10-(10)----|
|----------|-----------------------|-------------------|----------------|


    E  E E E E  E  E E    H          E  E  E E
|----------------------|-----------------------|
|----------------------|-----------------------|
|---8--8---7-----------|-----------------------|
|--------------10--8-7-|-------------------7-8-|
|----------------------|-10------------10------|
|----------------------|-----------------------|
|
|  +E  E E E E  E  E E    E  E  +Q.     E  E E
|----------------------|-----------------------|
|----------------------|-----------------------|
|------8-8---7---------|-----------------------|
|-----------------10-8-|--7------------------7-|
|-(10)-----------------|----10-(10)-------10---|
|----------------------|-----------------------|


   Q    Q    E  Q.         W
|----------------------|---------------|
|----------------------|---------------|
|--------------10------|---7-----------|
|-10----8---10---------|---------------|
|----------------------|---------------|
|----------------------|---------------|
|
|  E  Q   Q     E   Q     +E  E +H.
|----------------------|---------------|
|----------------------|---------------|
|------------------10--|-(10)-7-(7)----|
|--8-10---8----10------|---------------|
|----------------------|---------------|
|----------------------|---------------|


   Q    Q  E  Q.     H      E E E  E    H         Q    E  E    H        H
|------------------|-----------------|----------------------|------------------|
|-11---10--8-------|-----------------|----------------------|------------------|
|------------10----|-8--------8-7----|--7-------------------|--7---------------|
|------------------|--------------10-|-----------10----8-10-|------------------|
|------------------|-----------------|----------------------|------------------|
|------------------|-----------------|----------------------|------------------|
|
| +Q    Q  H         E Q.   Q   E  E    E E +Q.      Q    E    E E +Q.    E Q
|------------------|-----------------|----------------------|------------------|
|------------------|-----------------|----------------------|------------------|
|-(7)--------------|---8--------8--7-|----7-(7)-------------|----7-(7)---------|
|------------------|-----------------|-10-----------10----8-|-10---------------|
|------------------|-----------------|----------------------|------------------|
|------------------|-----------------|----------------------|------------------|


   E  E  E E E E  E  E    H        E E E  E
|----------------------|--------------------|
|----------------------|--------------------|
|----------------------|--8----------8-7----|
|--------7-7-8-8-10-10-|-----------------10-|
|-10-10----------------|--------------------|
|----------------------|--------------------|
|
|  E  E  E E E E  E  E    E E +Q.    E E  E
|----------------------|--------------------|
|----------------------|--------------------|
|----------------------|----8-(8)------8--7-|
|----------7-7-8--8-10-|-10-----------------|
|----10-10-------------|--------------------|
|----------------------|--------------------|


   H         Q    E  E    W
|----------------------|-------------|
|----------------------|-------------|
|--7-------------------|-------------|
|-----------10----8-10-|--8----------|
|----------------------|-------------|
|----------------------|-------------|
|
|  E E +Q.      Q    E    E E +H.
|----------------------|-------------|
|----------------------|-------------|
|----7-(7)-------------|-------------|
|-10-----------10----8-|-10-8-(8)----|
|----------------------|-------------|
|----------------------|-------------|


|--------|
|--------|
|--------|
|--------|
|--------|
|--------|
|
| +H
|--------|
|--------|
|--------|
|-(8)----|
|--------|
|--------|


Добавлено: 18.02.2016
Другие материалы по этой песне:

Страница создана 15.02.2016
http://primanota.ru/misc-computer-games/guardian-legend-title-screen-chords.htm
Привет, Гость.
Предлагаем пройти революционный курс по гитаре.
Подарок от PrimaNota.Ru, забирай!