PrimaNota.ru - самый крупный в мире бесплатный архив песенных текстов, аккордов, табулатур и нот


Misc Computer Games - Ladybug Ladybug Charlottes Song - таба

Регистрация Запомнить меня
Войти через:  Facebook Google Twitter Vk Yandex Mail.ru

Misc Computer Games - Ladybug Ladybug Charlottes Song - таба

Печатать
Просмотров: 143
This is an acoustic tab for the song Charlotte sings in The Ghost of Thornton Hall. The lyrics are based off of 
the nursery rhyme "Ladybug Ladybug".

Capo: 4

E|--0--0--1--0--0--1--0-------------------0--0--1--0--0-----0-0--1--1--4--0---------
B|-----------------------1----------------------------------------------------------
G|--------------------------2--2-------2----------------------------2-----------2---
D|-----2--------------------------2----------2-------------------3-----------2------
A|--0-----------2-----0-----0--0----------0-----------2-------------------0---------
E|-----------0-------------------------------------0--------------------------------

E|--1--1--4--0----0--1----3--0----0--1---1--0--------------------
B|--------------------------------------------3--1---------------
G|-----2----------------2--------------2--------------2----2--2--
D|--3-----------2----3----------2----3------3-----------2--------
A|-----------0---------------0------------------------0-------0--
E|---------------------------------------------------------------

Am       E        Am
Ladybug, ladybug, fly away home
                 E              F            Am
Your house is on fire, and your children are gone
F          Am         F         Am
All except one, sweet Charlotte Ann
    F                 Am
And she hid under the frying pan
Добавлено: 14.07.2015
Другие материалы по этой песне:
  • Аккорды и текст

Страница создана 14.07.2015
http://primanota.ru/misc-computer-games/ladybug-ladybug-charlottes-song-chords.htm
Привет, Гость.
Предлагаем пройти революционный курс по гитаре.
Подарок от PrimaNota.Ru, забирай!