PrimaNota.ru - самый крупный в мире бесплатный архив песенных текстов, аккордов, табулатур и нот


Misc Computer Games - Ghost N Goblins - Stage 5 And 6 - таба, видео

Регистрация Запомнить меня
Войти через:  Facebook Google Twitter Vk Yandex Mail.ru

Misc Computer Games - Ghost N Goblins - Stage 5 And 6 - таба, видео

Печатать
Просмотров: 73
Уроки эстрадного вокала в Санкт-Петербурге
Gtr I (E A D G B E)
Gtr II (E A D G B E)

  Q=105
  Gtr I
   Q   Q   Q   Q     E  E  E  E  E  E  E  E
|-----------------|-------------------------|
|-----------------|-------------------------|
|-----------------|-------------------------|
|-----11--12------|----11-12-------11-12----|
|-10----------12--|-10-------12-10-------12-|
|-----------------|-------------------------|


   Q   Q   Q   Q     E  E  E  E  E  E  E  E
|-----------------|-------------------------|
|-----------------|----------------------10-|
|-----11--12------|----11-12-------11-12----|
|-10----------11--|-10-------11-10----------|
|-----------------|-------------------------|
|-----------------|-------------------------|


   Q   +E  E E  E  E E   Q  +E   E  Q   Q
|----------------------|-------------------|
|----------------------|-------------------|
|-11--(11)--------11-9-|-8--(8)------------|
|----------9-9-10------|--------11-12------|
|----------------------|---------------10--|
|----------------------|-------------------|


   Q   Q   Q   Q     E  E  E  E  E  E  E  E
|-----------------|-------------------------|
|-----------------|-------------------------|
|-----------------|-------------------------|
|-----11--12------|----11-12-------11-12----|
|-10----------12--|-10-------12-10-------12-|
|-----------------|-------------------------|


   Q   Q   Q   Q     E  E  E  E  E  E  E  E
|-----------------|-------------------------|
|-----------------|----------------------10-|
|-----11--12------|----11-12-------11-12----|
|-10----------11--|-10-------11-10----------|
|-----------------|-------------------------|
|-----------------|-------------------------|
|
|  W                 W
|-----------------|-------------------------|
|-----------------|-------------------------|
|-----------------|-------------------------|
|-----------------|-------------------------|
|-----------------|-------------------------|
|-----------------|-------------------------|


   Q    +E   E  Q    Q       Q     Q     Q     Q
|-------------------------|-------------------------|
|-------------------------|-------------------------|
|-11---(11)-12-11---11----|-------------------------|
|-------------------------|-11----------------------|
|-------------------------|-------12----10----10----|
|-------------------------|-------------------------|
|
| Gtr II
|  E E   E   E  E E  E  E    E  E  E  E  E  E  E  E
|-------------------------|-------------------------|
|-------------------------|-------------------------|
|-------------------------|-12-12-12-12----12-11-11-|
|--9-9---9--10--9-9--9-10-|-------------13----------|
|-------------------------|-10-10-10-10----10--9--9-|
|--7-7---7---8--7-7--7--8-|-------------11----------|
Добавлено: 14.07.2015
Другие материалы по этой песне:
  • Аккорды и текст

Страница создана 14.07.2015
http://primanota.ru/misc-computer-games/ghost-n-goblins-stage-5-and-6-chords.htm
Привет, Гость.
Предлагаем пройти революционный курс по гитаре.
Подарок от PrimaNota.Ru, забирай!