PrimaNota.ru - самый крупный в мире бесплатный архив песенных текстов, аккордов, табулатур и нот


Misc Computer Games - Pokemon Gold Silver Crystal - Dark Cave - бас-таба, видео

Регистрация Запомнить меня
Войти через:  Facebook Google Twitter Vk Yandex Mail.ru

Misc Computer Games - Pokemon Gold Silver Crystal - Dark Cave - бас-таба, видео

Печатать
Просмотров: 144
Pokemon GSC - Dark Caves

Tabbed by: Ashy (XxThreeCheersxX)
E-mail: burdickash@gmail.com

Tuning: Standard

Main Riff
G|----0----0----------------------0----0----------------|
D|------1----3--1-------------------1----3-1------------|
A|-3---------------1----3-4----3--------------1--4-3-4--|
E|------------------------------------------------------|

Main Riff Variation (an octave higher)
G|-----12-----12----------------------------12-----12----------------------|
D|--------13-----15--13------------------------13-----15--13---------------|
A|-15--------------------13----15-16----15--------------------13--16-15-16-|
E|-------------------------------------------------------------------------|

Happy playing!

| /  slide up
| \  slide down
| h  hammer-on
| p  pull-off
| ~  vibrato
| +  harmonic
| x  Mute note
===============================================================================
Добавлено: 04.09.2015
Другие материалы по этой песне:

Страница создана 24.07.2015
http://primanota.ru/misc-computer-games/pokemon-gold-silver-crystal-dark-cave-chords.htm
Привет, Гость.
Предлагаем пройти революционный курс по гитаре.
Подарок от PrimaNota.Ru, забирай!