PrimaNota.ru - самый крупный в мире бесплатный архив песенных текстов, аккордов, табулатур и нот


Misc Computer Games - Atlantis Underwater Tycoon Soundtrack - Part 4 - бас-таба, видео

Регистрация Запомнить меня
Войти через:  Facebook Google Twitter Vk Yandex Mail.ru

Misc Computer Games - Atlantis Underwater Tycoon Soundtrack - Part 4 - бас-таба, видео

Печатать
Просмотров: 104
Atlantis Underwater Tycoon (Soundtrack Part 4) - Bass Tab

Tuning Standard

Note: This is the bass tab for the fourth part of the 
soundtrack for the 2003 PC game, Atlantis Underwater Tycoon.

[23:46-23:59]
G|-----------------------------------------------------------------------|
D|-----------2-4--2---------------------------------2-4--2---------------|
A|-2--2----2--------2-2---------------------2--2-----------2-2-----------|
E|----------------------2--2----2-2-2-2-2-2--------------------5--5----2-|

[24:00-24:12]
[x1]
G|--------------------------------------------------------------------|
D|--------------------------------------------------------------------|
A|-2--2----2--2------------------------2--2----2--2-------------------|
E|---------------5---2--2----2--2----5---------------5---0--0----0--0-|

[24:13-25:35]
[x6]
G|----------------------------------------------|
D|----------------------------------------------|
A|-2--2-2--2--2--2-2----------------------------|
E|--------------------5---2--2-2--2--2--2-2---5-|

G|----------------------------------------------|
D|----------------------------------------------|
A|-2--2-2--2--2--2-2----------------------------|
E|--------------------5---0--0-0--0--0--0-0-----|

[25:36-25:49]
[x1]
G|-------------------------------------------------------------------------|
D|-------------2-4--2---------------------------------2-4--2---------------|
A|---2--2----2--------2-2---------------------2--2-----------2-2-----------|
E|-5----------------------2--2----2-2-2-2-2-2--------------------5--5----2-|

[25:50-26:03]
[x1]
G|--------------------------------------------------------------------|
D|--------------------------------------------------------------------|
A|-2--2----2--2------------------------2--2----2--2-------------------|
E|---------------5---2--2----2--2----5---------------5---0--0----0--0-|

[26:04-26:17]
[x1]
G|----------------------------------------------|
D|----------------------------------------------|
A|-2--2-2--2--2--2-2----------------------------|
E|--------------------5---2--2-2--2--2--2-2---5-|

G|----------------------------------------------|
D|----------------------------------------------|
A|-2--2-2--2--2--2-2----------------------------|
E|--------------------5---0--0-0--0--0--0-0-----|

[26:19-26:46]
[x2]
G|----------------------------------------------|
D|----------------------------------------------|
A|-2--2-2--2--2--2-2----------------------------|
E|--------------------5---2--2-2--2--2--2-2---5-|

G|----------------------------------------------|
D|----------------------------------------------|
A|-2--2-2--2--2--2-2----------------------------|
E|--------------------5---0--0-0--0--0--0-0-----|

If there's any confusion, questions, or advice on how to 
improve it, please post a comment. Have fun playing, and 
please rate! -Rarrlow
Добавлено: 28.08.2015
Другие материалы по этой песне:
  • Аккорды и текст

Страница создана 28.08.2015
http://primanota.ru/misc-computer-games/atlantis-underwater-tycoon-soundtrack-part-4-chords.htm
Привет, Гость.
Предлагаем пройти революционный курс по гитаре.
Подарок от PrimaNota.Ru, забирай!